20150520

HALLELUJAH FINGERSTYLE TAB


Leonard Cohen - Hallelujah fingerstyle guitar cover played by Hansel Pethig
It's in standard tuning with CAPO on the 2nd
Download the TAB under the video



LEONARD COHEN HALLELUJAH FINGERSTYLE TAB

PDF + GUITAR PRO >>

e---3-----3-----------3-----------3-----------3-------------------------
B---3-----3-----------3-----------3-----------3---0---------------------
G---0---0---0-------0-----------0---0-------0---0-----------------------
D-----0-----------2-----------0-----------2-----------------------------
A-----------------------------------------------------------------------
E---3---------2-0-------0-2-3---------2-0-------------------------------


e---3-----------0-----0-----------------0-----0---0---------------------
B---------3---3-----------0-3-----3-0-3---------------------------------
G-------0---0-------0---0---0---0---0-0-----0---0-----------------------
D-----0-----------2-----------0-----------2-----------------------------
A-----------------------------------------------------------------------
E---3-----------0-----------3-----------0-------------------------------


e---0-----0-----------0-----------------------2-------------------------
B---1-----1-----3---------3-3-----0---------3-----0---------------------
G---0---0-------2---2---2-------0-----0---3-----------------------------
D-----2-----------0-----------0-----0---0-------------------------------
A---3-------2-0---------------------------------------------------------
E---------------2-----------3-------------------------------------------



e---------------0---0-2---2-3-----3---3-3---3-5---5---------------------
B---3-----3---3-1---1-3---3-0-----0---0-1---1-3---3---------------------
G-------0---0---0-------2---0---0---0---0-0-0-5-5-----------------------
D-----0-----------2---0-------2-----------------------------------------
A---------------3-----------------------3-----5-------------------------
E---3-----------------------0-------------------------------------------

 etc ...