20150501

THE RYDERS SWAY TAB (GUITAR INSTRUMENTAL)


The Ryders play Sway live in Verden (2014)
Nice guitar instrumental with the good old Fender Stratocaster
Download the TAB under the video



THE RYDERS SWAY TAB


Part 1

e-----------------------------------------------------------------------
B-----------------------------------------------------------------------
G-10-10--9--9-7-7-6.----------------------------------------------------
D-12-12-10-10-8-8-7.----------------------------------------------------
A-----------------------------------------------------------------------
E-----------------------------------------------------------------------

              Gm    A         Gm    A         Dm
e-5-5-5-5-5-5-6---5-----------6---5-------5---5-------------------------
B-------------------8~--------------8~------8-----8-6~------------------
G-----------------------------------------------------------------------
D-----------------------------------------------------------------------
A-----------------------------------------------------------------------
E-----------------------------------------------------------------------

                Gm    A         Gm    A         Dm
e-------------------------------------------5---5-----------------------
B-6.----6---6---8.--6-5~----8-6-8.--6-5~----6-5-6---5h6p5---------------
G-----7---7---7-7.--7-6~--------7.--7-6~-----------------7~-------------
D-----------------------------------------------------------------------
A-----------------------------------------------------------------------
E-----------------------------------------------------------------------



                    Gm    A         Gm       A         Dm
e---5.-5.-5.-5.-5-5h6---5-----------6---5h6p5------5---5----------------
B--6----------------------8~-----------------8~------8-----8-6~---------
G-7---------------------------------------------------------------------
D-----------------------------------------------------------------------
A-----------------------------------------------------------------------
E-----------------------------------------------------------------------

                 Gm    A         Gm    A         Dm
e--------------------------------------------5--------------------------
B------6---6---6-8.--6-5~--------8.--6-5~----6p5-6---5h6p5--------------
G-/7-----7---7---7.--7-6~----7-7-7.--7-6~-----------------7~------------
D-----------------------------------------------------------------------
A-----------------------------------------------------------------------
E-----------------------------------------------------------------------



Part 2
                     C  
e-----------------------------------------------------------------------
B-----5-5h6---5h6p5--5---5h6-8~-----------------------------------------
G-7.---------------7----------------------------------------------------
D-----------------------------------------------------------------------
A-----------------------------------------------------------------------
E-----------------------------------------------------------------------

                  F
e---------5-6-8---8----8~-----------------------------------------------
B-5---6-8-----------10--------------------------------------------------
G-----------------------------------------------------------------------
D-----------------------------------------------------------------------
A-----------------------------------------------------------------------
E-----------------------------------------------------------------------