20150608

ERIC CLAPTON "CROSSROADS" TAB (SOLO)


Eric Clapton "Crossroads" recorded at a random rehearsal (with a white strat)
There is a great solo at 1:55 and another good one around 5:10
Download the TAB of these 2 solos below



ERIC CLAPTON CROSSROADS SOLO TAB


Solo 1   (1:55)

e-----------------------------------------------------------------------
B---------13h15-13---------------13--15-13----------13.-----------------
G---///-----------14-14~---14~-----14-----14-14~------------------------
D-----------------------------------------------------------------------
A-----------------------------------------------------------------------
E-----------------------------------------------------------------------


e-----------------------------------------------------------------------
B---15(17)---(15)(17)-------15-13-15.--15'--13'-------------------------
G-----------------------------------------------------------------------
D-----------------------------------------------------------------------
A-----------------------------------------------------------------------
E-----------------------------------------------------------------------


e-----------------------------------------------------------------------
B---8-5-----------------------------------------------------------------
G-------7.--5---------------------5.------------------------------------
D-------------7-5---5h7-7~---7~-----------------------------------------
A-----------------7-----------------------------------------------------
E-----------------------------------------------------------------------



e-----------------------------------------------------------------------
B---6/8-8---------5----------5---7-5---5------5.------------------------
G---7/9---7-5-----5----------5---7-5---5------5.------------------------
D-------------7-5---7-7~-------7-----7---7~-----------------------------
A-----------------------------------------------------------------------
E-----------------------------------------------------------------------


e-----------------------------------------------------------------------
B---15(17)---13------------13--15(17)-15-13.--13'-----------------------
G--------------14~---14~-----14-----------------------------------------
D-----------------------------------------------------------------------
A-----------------------------------------------------------------------
E-----------------------------------------------------------------------


e-----------------------------------------------------------------------
B---------8-------------------------------------------------------------
G---7/9-----9\7-5-------------------------------------------------------
D-----------------7-5---------------------------------------------------
A---------------------7\5-3-----3.--------------------------------------
E---------------------------5-------------------------------------------


e---------5-----------5---5-8-5h8p5---5---------------------------------
B-------5---5-8(10)-----5-----------8---8-5---5-------------------------
G---5h6-------------------------------------7---7/9-----7-5-------------
D-----------------------------------------------------------7.----------
A-----------------------------------------------------------------------
E-----------------------------------------------------------------------


e-----------------------------------------------------------------------
B------------10--10-13-10h13p10--10--10~---10.--13'--13'----------------
G---12(14)-----12--------------12--12-----------------------------------
D-----------------------------------------------------------------------
A-----------------------------------------------------------------------
E-----------------------------------------------------------------------


e---/9.----/8.--7.--5-----5.--x-5.--5-5.--------------------------------
B-------------------5-----5.--x-5.--5-5.--------------------------------
G---/9.----/8.--7.--5h6---6.--x-6.--6-6.--------------------------------
D-------------------7-----7.--x-7.--7-7.--------------------------------
A-------------------7---------------------------------------------------
E-------------------5---------------------------------------------------


e---/1515151515-/15151515151515-/151515151515-/15151515---15---15-\-----
B---/1717171717-/17171717171717-/171717171717-/17171717---17---17-\-----
G-----------------------------------------------------------------------
D-----------------------------------------------------------------------
A-----------------------------------------------------------------------
E-----------------------------------------------------------------------


e-----------------------------------------------------------------------
B---17(20)-----17-15--17-15---------------------------------------------
G-------------------17-----17-14--14~---14~---14-17-14-\----------------
D-------------------------------17--------------------------------------
A-----------------------------------------------------------------------
E-----------------------------------------------------------------------