20150615

PART OF YOUR WORLD FINGERSTYLE TAB


(The Little Mermaid) Part Of Your World fingerstyle classical guitar cover
It's arranged and played by Marco Savelli (standard tuning)
Download the TAB under the video



THE LITTLE MERMAID PART OF YOUR WORLD FINGERSTYLE TAB

GP5 + GP6 + PDF >>

Part 1

e-----------------------------------------------------------------------
B---1-------1-------1-0---0-3-----0-3-1-----1-------1-0---0-3-----0-3---
G---2---0-2-----0-2---2-2-----0-2-----2-0-2-----0-2---2-2-----0-2-------
D---3---------3-------3---------------3-------3-------3-----------------
A-----------------------------------------------------------------------
E-----------------------------------------------------------------------


e-----------------------------------------------------------------------
B-------0-1-1---------0-1-3-3-----------0-1-1---0---1-0-1---3-3---------
G-----2-------------2---------------0-2-------------2---------------0---
D-----------------3---------------0---------------3---------------0-----
A---------------3---------------2-------------------------------2-------
E---1---------1-------1-------1-------1-------1-------1-------1---------


e---------------------------------0---0---------------0h2---------------
B---0-1-3-3---1-3-1---------0-1-3---------3-3-------1-----1-------------
G-----------------0-----------------0-------------0---------2-----------
D---------------0-----------------2---0-------0h2-------------0---------
A-------------2-----0---------0-3---------------------------------------
E---0-------0-----------------------------------------------------------



e-----------------------------------------------------------------------
B-------0-1-1---------0-1-3-3-----------0-1-1---0---1-0--1--3-3---------
G-----2-------------2---------------0-2-------------2---------------0---
D-----------------3---------------0---------------3---------------0-----
A---------------3---------------2---------------3---------------2-------
E---1---------1-------1-------1-------1-------1-------1-------1---------

 etc ...