20150705

TAKE GOOD CARE OF MY BABY INSTRUMENTAL GUITAR TAB


Bobby Vee - Take Good Care Of My Baby instrumental guitar cover by Trapanner
Easy guitar instrumental with backing track
Download the TAB under the video



TAKE GOOD CARE OF MY BABY INSTRUMENTAL TAB


Part 1

e-----------------------------------------------------------------------
B---1/3-----------------------------------------------------------------
G---------4-----------------2h4---2---0-4-2-----------------------------
D-----------5---5\4-2---4h5---------------------------------------------
A-----------------------------------------------------------------------
E-----------------------------------------------------------------------


e-----------------------------------------------------------------------
B-------3-----------4-----------5---------------------------------------
G-----------4---2-0-----4-----------7---5-4---2-0-2---------------------
D---0-----------------------7-5-----------------------------------------
A-----------------------------------------------------------------------
E-----------------------------------------------------------------------



Part 2

e-----------------------------------------------------------------------
B-----------------------------------------------------------------------
G-----------------------------------------------------------------------
D---5-----5-4---4\2---2-4/5-5----------5-------4------------------------
A-----------------------------------------------------------------------
E-----------------------------------------------------------------------



e-----------------------------------------------------------------------
B-----------------------------------------------------------------------
G-----------------------------2h4---2-----------------------------------
D---5-5---4---4---2---4---5---------------------------------------------
A-----------------------------------------------------------------------
E-----------------------------------------------------------------------


e-----------------------------------------------------------------------
B---3/5-5---3-----------------------3---3-------------------------------
G---------------5---4---3-4-----------------5---4---2---1-2-------------
D-----------------------------------------------------------------------
A-----------------------------------------------------------------------
E-----------------------------------------------------------------------


e-----------------------------------------------------------------------
B-------------------------------5---------------------------------------
G---5---5---4---2-------------------------------------------------------
D-------------------5---4---5-------------------4-----------------------
A-----------------------------------------------------------------------
E-----------------------------------------------------------------------