20150708

GAME OF THRONES THEME TAB (ELECTRIC GUITAR TAB)


Game of Thrones Theme "western guitar cover" played by BenDanProductions
Funny electric guitar cover in standard tuning
Download the TAB under the video



GAME OF THRONES THEME ELECTRIC GUITAR TAB

GP5 + GP6 + PDF >>

Intro

e---0---------------------------0---------------------------------------
B---1---------------------------2---------------------------------------
G---2---------------------------2---------------------------------------
D---2---------------------------2---------------------------------------
A---0---------------------------0---------------------------------------
E-----------------------------------------------------------------------



Part 1

    Am                                  Em
e-----------------------------------------------------------------------
B---5~------------------5~----------------------------------------------
G-------------------5h7-------------5h7-4~------------------------------
D-----------7~----------------7~----------------------------------------
A-----------------------------------------------------------------------
E-----------------------------------------------------------------------

    G                                     D
e-----------------------------------------------------------------------
B---3~------------------3~----------------------------------------------
G-------------------5p4---------------5p4-2~----------------------------
D-----------5~----------------5~----------------------------------------
A-----------------------------------------------------------------------
E-----------------------------------------------------------------------




    Am                                  Em
e-----------------------------------------------------------------------
B---5~------------------5~----------------------------------------------
G-------------------5h7-------------5h7-4~------------------------------
D-----------7~----------------7~----------------------------------------
A-----------------------------------------------------------------------
E-----------------------------------------------------------------------

    G                                     Am
e-----------------------------------------------------------------------
B---3~------------------3~----------------------------------------------
G-------------------5p4---------------5p4-2~----------------------------
D-----------5~----------------5~----------------------------------------
A-----------------------------------------------------------------------
E-----------------------------------------------------------------------

    Am                                  Em
e-----------------------------------------------------------------------
B---5~------------------5~----------------------------------------------
G-------------------5h7-------------5h7-4~------------------------------
D-----------7~----------------7~----------------------------------------
A-----------------------------------------------------------------------
E-----------------------------------------------------------------------

    G                                 Am
e-----------------------------------------------------------------------
B---3~------------------------------------------------------------------
G-------------------4-----4h5-4-\-0---2~--------------------------------
D-----------5~----------------------------------------------------------
A-----------------------------------------------------------------------
E-----------------------------------------------------------------------