20150713

HANSEL PETHIG A WHITER SHADE OF PALE TAB (FINGERSTYLE GUITAR TAB)

Procol Harum - A Whiter Shade of Pale fingerstyle guitar cover by Hansel Pethig
It's in standard tuning with CAPO on the 2nd fret
Download the TAB under the video



A WHITER SHADE OF PALE FINGERSTYLE TAB

GP5 + GP6 + PDF >>

Part 1

e-----------------------------------------------------------------------
B---0-----------0---------------0---0-----------------------0-----------
G-----------0---------------2---------------0-------0-----------0-------
D-------0---------------0---------------7---------------7---------------
A-----------------------------------------------9.--5-------------------
E---3---------------2---------------0-----------------------------------


e---0-----------0-------------------------------------------------------
B-----------0---------------7--/8.----0---------0---------------0-------
G-------0-----------------0---------5---5-------------------2-----------
D-----------------------0-------------------2-----------0---------------
A-----------------------------------0-----------------------------------
E---8---------------7-------------------------------3-------------------


e---2-----------2-----------3--/5.--------------------------------------
B-----------5-----------------------3-------3-------3-------0-----------
G-------2---------------2-------------0-----------0-----5-------5-------
D---0-----------------------------------4-------4-----------0-----------
A-------------------3---------------2-----------------------------------
E---------------------------------------------------2-------------------



e-------------------0-----------0---------------------------------------
B-------0-------------------0-------3-----------0---1-------1-----------
G---5-----------0-------0-------------------0-----------0-------0-------
D-----------7---------------------------0h4-----------------0-----------
A-----------------------------------5---------------0-------------------
E---3---------------8---------------------------------------------------





DOWNLOAD THIS TAB IN GUITAR PRO



  • click 'Free Download'
  • add your e-mail address
  • you will get an e-mail with your download links (in a few seconds)
  • download the Guitar Pro 6 tab + GP5 + PDF for free
  • and that's all ...


Guitar Pro: a complete workshop for guitarists at an affordable price