20150830

CHARLIE PARRA DEL RIEGO TURKISH MARCH TAB (ELECTRIC GUITAR TAB)


Turkish March (Rondo alla Turca) electric guitar cover by Charlie Parra del Riego
The original video title is: "Rondo alla turca / Turkish March goes Heavy Metal"
Download the TAB under the video



TURKISH MARCH ELECTRIC GUITAR TAB

GP5 + GP6 + PDF >>

Part 1

G1
e-----------------------------------------------------------------------
B---12-10-9-10/13~---------15-13-12-13/17~-----------18-17-16-17--------
G-----------------------------------------------------------------------
D-----------------------------------------------------------------------
A-----------------------------------------------------------------------
E-----------------------------------------------------------------------

G2
e-----------------------------------------------------------------------
B-----------------------------------------------------------------------
G-----------------------------------------------------------------------
D-----------------------------------------------------------------------
A--------------7--7--7--7--7--7--7--7-----------------------------------
E--------------5--5--5--5--5--5--5--5-----------------------------------
               x  x  x  x  x  x  x  x 


G1
e---19-17-16-17-19-17-16-17-20-------17--20-----------------------------
B-----------------------------------------------------------------------
G-----------------------------------------------------------------------
D-----------------------------------------------------------------------
A-----------------------------------------------------------------------
E-----------------------------------------------------------------------



G2
e-----------------------------------------------------------------------
B-----------------------------------------------------------------------
G-----------------------------------------------------------------------
D-----------------------------------------------------------------------
A---7--7--7--7--7--7--7--7----------------------------------------------
E---5--5--5--5--5--5--5--5----------------------------------------------
    x  x  x  x  x  x  x  x


G1
e---19--17h19p17-----17--19--17h19p17-----17--19--17h19p17--------------
B----------------20-------------------20--------------------20--19--17\-
G-----------------------------------------------------------------------
D-----------------------------------------------------------------------
A-----------------------------------------------------------------------
E-----------------------------------------------------------------------

G2
e-----------------------------------------------------------------------
B-----------------------------------------------------------------------
G-----------------------------------------------------------------------
D---9--9--9--9--9--9--9--9--9--9--9--9--9--9--9--9----------------------
A---7--7--7--7--7--7--7--7--7--7--7--7--7--7--7--7----------------------
E-----------------------------------------------------------------------
    x  x  x  x  x  x  x  x  x  x  x  x  x  x  x x



G1
e-----------------------------------------------------------------------
B---12-10-9-10/13~---------15-13-12-13/17~-----------18-17-16-17--------
G-----------------------------------------------------------------------
D-----------------------------------------------------------------------
A-----------------------------------------------------------------------
E-----------------------------------------------------------------------

G2
e-----------------------------------------------------------------------
B-----------------------------------------------------------------------
G-----------------------------------------------------------------------
D-----------------------------------------------------------------------
A--------------7--7--7--7--7--7--7--7-----------------------------------
E--------------5--5--5--5--5--5--5--5-----------------------------------
               x  x  x  x  x  x  x  x 


G1
e---19-17-16-17-19-17-16-17-20-------17--20-----------------------------
B-----------------------------------------------------------------------
G-----------------------------------------------------------------------
D-----------------------------------------------------------------------
A-----------------------------------------------------------------------
E-----------------------------------------------------------------------

G2
e-----------------------------------------------------------------------
B-----------------------------------------------------------------------
G-----------------------------------------------------------------------
D-----------------------------------------------------------------------
A---7--7--7--7--7--7--7--7----------------------------------------------
E---5--5--5--5--5--5--5--5----------------------------------------------
    x  x  x  x  x  x  x  x


G1
e---19--17h19p17-----17--19--17h19p17-----17--19--17h19p17--------------
B----------------20-------------------20--------------------20--19--17\-
G-----------------------------------------------------------------------
D-----------------------------------------------------------------------
A-----------------------------------------------------------------------
E-----------------------------------------------------------------------

G2
e-----------------------------------------------------------------------
B-----------------------------------------------------------------------
G-----------------------------------------------------------------------
D---9--9--9--9--9--9--9--9--9--9--9--9--9--9--9--9----------------------
A---7--7--7--7--7--7--7--7--7--7--7--7--7--7--7--7----------------------
E-----------------------------------------------------------------------
    x  x  x  x  x  x  x  x  x  x  x  x  x  x  x x

 etc ...