20150809

SKEETER DAVIS END OF THE WORLD INSTRUMENTAL GUITAR TAB


Skeeter Davis - End Of The World instrumental guitar cover played by John Mason
Easy guitar instrumental with backing track
Download the TAB under the video



END OF THE WORLD INSTRUMENTAL TAB


Part 1

e-----------------------------------------------------------------------
B-------------------------8-6-------------------------------------------
G---7~------7-5-3~------7-------5~--------------------------------------
D-----------------------------------------------------------------------
A-----------------------------------------------------------------------
E-----------------------------------------------------------------------


e-----------------------------------------------------------------------
B-----------------------------------------------------------------------
G---3~------3-2-0-----3---8-7~------------------------------------------
D-----------------------------------------------------------------------
A-----------------------------------------------------------------------
E-----------------------------------------------------------------------


e-----------------------------------------------------------------------
B---------8-----8~------6-8-10~------6---6~-----------------------------
G---5----------------------------------7--------------------------------
D-----------------------------------------------------------------------
A-----------------------------------------------------------------------
E-----------------------------------------------------------------------



e-----------------------------------------------------------------------
B-----8-----6-----4---3-------3-4~--------------------------------------
G---7-----------------------5-------------------------------------------
D-----------------------------------------------------------------------
A-----------------------------------------------------------------------
E-----------------------------------------------------------------------



Part 2

e-----------------------------------------------------------------------
B-------------------------8-6-------------------------------------------
G---7~------7-5-3~------7-------5~--------------------------------------
D-----------------------------------------------------------------------
A-----------------------------------------------------------------------
E-----------------------------------------------------------------------


e-----------------------------------------------------------------------
B-----------------------------------------------------------------------
G---3~--------3-2-0-----3---8-7~----------------------------------------
D-----------------------------------------------------------------------
A-----------------------------------------------------------------------
E-----------------------------------------------------------------------


e-----------------------------------------------------------------------
B---------8-----8~------6-8-8/10~------6---6~---------------------------
G---5------------------------------------7------------------------------
D-----------------------------------------------------------------------
A-----------------------------------------------------------------------
E-----------------------------------------------------------------------


e-----------------------------------------------------------------------
B-----8---4-------------------------------------------------------------
G---7-------5---3-2~----5-----5\3~--------------------------------------
D-----------------------------------------------------------------------
A-----------------------------------------------------------------------
E-----------------------------------------------------------------------