20150906

JOSH TURNER - YOUR MAN TAB (BING LOUNGE)


Josh Turner plays Your Man live acoustic at the Bing Lounge
It's in standard tuning with Capo on the 2nd fret
Download the TAB under the video



JOSH TURNER YOUR MAN ACOUSTIC TAB

PDF + GUITAR PRO >>

Intro solo
                                   A
e-----------------------------------------------------------------------
B-----------------------------------------------------------------------
G------------------------------4.--2---------2--------------------------
D--------------------2.--4/6-------2h4p2-----2--------------------------
A-----------2.--/4-----------------------4------------------------------
E---0--/4---------------------------------------------------------------

                           E
e-----------------------------------------------------------------------
B-----------------------------------------------------------------------
G------------2----------------------------------------------------------
D--------2-------2h4---2.-----------------------------------------------
A---/4---------------------4---2h4p2-----2------------------------------
E------------------------------------5---4------------------------------

                          B7
e-----------------------------------------------------------------------
B-----------------------------------------------------------------------
G-----------------------------------------------------------------------
D-------------------------4-----------4-----------4---------------------
A---2h4p2-----2---4---2-------5---6-----------5h6-----6\4---2---2-------
E---------4-------------------------------------------------------------

                               E
e-----------------------------------------------------------------------
B-----------------------------------------------------------------------
G--------4--------------------------------------------------------------
D---/6-------6\4--p2-----------2----------------------------------------
A----------------------4---2--------------------------------------------
E-----------------------------------------------------------------------

                        E
e-----------------------------------------------------------------------
B-----------------------------------------------------------------------
G-----------------------------------------------------------------------
D---2.------------------------------------------------------------------
A-------2h4-2-----------2.----------------------------------------------
E---------------4\2-0---0.----------------------------------------------

 etc ...