20150924

RIVER FLOWS IN YOU TAB (INSTRUMENTAL ELECTRIC GUITAR TAB)


Yiruma - River Flows In You instrumental electric guitar cover by Vichede
Awesome electric guitar solo played in standard tuning
Download the TAB under the video



RIVER FLOWS IN YOU ELECTRIC GUITAR TAB

GP5 + GP6 + PDF >>

Intro

e-----------------------------------------------------------------------
B-----------------------------------------------------------------------
G-------6-------6-----------------------9-------9-------4-------4-------
D---4-4---4-4-4---------7-------7---7-7---7-7-7-----2-2---2-2-2---------
A-------------------5-5---5-5-5-----------------------------------------
E-----------------------------------------------------------------------
    x x x x x x     x x x x x x     x x x x x x     x x x x x x


e-----------------------------------------------------------------------
B-----------------------------------------------------------------------
G-------6-------6-----------------------9-------9-------4-------4-------
D---4-4---4-4-4---------7-------7---7-7---7-7-7-----2-2---2-2-2---------
A-------------------5-5---5-5-5-----------------------------------------
E-----------------------------------------------------------------------
    x x x x x x     x x x x x x     x x x x x x     x x x x x x




e-----------------------------------------------------------------------
B-----------------------------------------------------------------------
G-------6-------6-----------------------9-------9-------4-------4-------
D---4-4---4-4-4---------7-------7---7-7---7-7-7-----2-2---2-2-2---------
A-------------------5-5---5-5-5-----------------------------------------
E-----------------------------------------------------------------------
    x x x x x x     x x x x x x     x x x x x x     x x x x x x



Verse

e-----------------------------------------------------------------------
B---/10---9-10-10---9-10-10-----10-10-----------------------------------
G-----------------------------9---------7---6---7---7/9---6-------------
D-----------------7---------7---------7---7-------------------7/9-------
A-----------------------------------------------------------------------
E-----------------------------------------------------------------------


e-----------------------------------------------------------------------
B-----------------------------------------------------------------------
G-----------------------6~------6-7-7/9~--------7-6---------------------
D---7\6-7~------7---7-9-----------------------------9~--------\---------
A-----------------7-----------------------------------------------------
E-----------------------------------------------------------------------

 etc ...