20151212

HANSEL PETHIG REDEMPTION SONG TAB (FINGERSTYLE GUITAR TAB)

Bob Marley - Redemption Song fingerstyle guitar cover played by Hansel Pethig
It's in standard tuning with CAPO on the 3rd fret
Download the TAB under the video



REDEMPTION SONG FINGERSTYLE TAB

GP5 + GP6 + PDF >>

Part 1

e-----------------------------------------------------------------------
B-----------------------------------------------------------------------
G-----------------------------------------------------------------------
D-----------------------2---0-------------------0-----------------------
A---------0-2-------3-----------2---------0-2-------3-2-0---------------
E---3-----------3.------------------3-----------------------3-----------


e-----------------------------------------------------------------------
B-----------------------------------------------------------------------
G-----------------------------------------------0-----------------------
D-----------------------2---0-------0-----------0-------0---0-----------
A---------0-2-------3---------3-2-0-2-----0-2-------3-2-0---2-----------
E---3-----------3.------------------3-----------------------3-----------


Part 2

e-----------------------------------------3-----------------------------
B---0-3/5-3-------1-0-1---3-----------3/5-------------------------------
G---------------------------------2---2/4-------------------------------
D---------------0-------0-------0---------------------------------------
A-----------------------------------------------------------------------
E-----------3-------3-------2-------2-----------------------------------



e-----------------------------------------------------------------------
B---------5-5\--0-1-----------1h3-0-------------------------------------
G-------4---4\--0-0-------0---------------------------------------------
D-----------0-----------2-----------------------------------------------
A-------------------3-------3-------------------------------------------
E---0-------------------------------------------------------------------


e-----------------------------------------------------------------------
B-----------------0-------0---0-----------------0-----------------------
G---------2-0---2---------0-------0---------0h2---2---------------------
D-------0-------0-------2-------2-------0h2-0---------------------------
A---------------------------2-------3-----------------------------------
E---3-------2-------0---------------------------------------------------





DOWNLOAD THIS TAB IN GUITAR PRO



  • click 'Free Download'
  • add your e-mail address
  • you will get an e-mail with your download links (in a few seconds)
  • download the Guitar Pro 6 tab + GP5 + PDF for free
  • and that's all ...


Guitar Pro: a complete workshop for guitarists at an affordable price