20151205

BEATLES YESTERDAY EASY FINGERSTYLE TAB


The Beatles - Yesterday easy fingerstyle classical guitar cover by Klaus Schindler
It's arranged and played in standard tuning and No Capo is used
Download the TAB under the video



YESTERDAY FINGERSTYLE TAB

GP5 + GP6 + PDF >>

Part 1

e-------------------------------------------0---2---4---5---7---8-------
B---3---1---1-----------------------------------------------------------
G---0-----------0-------------------------------------------------------
D-------------------2---------------------------------------------------
A---3-----------------------3-------2-----------------------------------
E---------------------------------------------------0-------------------


e---7-----------5---5-----------------------5---5---3---1---0-----------
B---------------------------------------------------------------3-------
G-------------------2-------0-----------5-----------0-------------------
D-----------------------------------3-----------------------------------
A---0-------0-----------------------------------------------------------
E-----------------------------------------------------------------------


e---1-----------0---0-----------------------0---------------------------
B-------------------1-------3-------1-------0-------3-------------------
G-----------0---------------0-------2---------------2-------2-----------
D-----------------------------------------------------------------------
A---3---------------3-------2-------0-----------------------------------
E-------------------------------------------3-------2-------------------

 etc ...