20160116

ADAM LEE HUMAN NATURE TAB (ELECTRIC GUITAR TAB)


Michael Jackson - Human Nature instrumental guitar cover by Adam Lee
It's played in standard tuning with a great sound
Download the TAB under the video



ADAM LEE HUMAN NATURE TAB


Part 1

e-----------------------------------------------------------------------
B-----------------------------------------------------------------------
G----------7.-----------------------------------------------------------
D---7h9~-------9/11\9/11~-----9-7~------7-7h9.-7.-----------------------
A-------------------------------------------------7h9.-9\7~-------------
E-----------------------------------------------------------------------


e-----------------------------------------------------------------------
B-----------------------------------------------------------------------
G---------7.---------9--------------------------------------------------
D---7-7h9-----9/11~----11\9p7-7h9~----p7~-------------7~----------------
A-----------------------------------------------7-7-9-------------------
E-----------------------------------------------------------------------
                                                x x x

e-----------------------------------------------------------------------
B-----------------------------------------------------------------------
G---------7.----------------9-------------------------------------------
D---7h9~------9/11-9/11~-----11\9p7-7~-----7-7h9.-7.--------------------
A----------------------------------------------------7h9.-9\7~----------
E-----------------------------------------------------------------------



e-----------------------------------------------------------------------
B-----------------------------------------------------------------------
G---------7.--7h9~----9/11.----7~-----\---------------------------------
D---7-7h9---------------------------------------------------------------
A-----------------------------------------------------------------------
E-----------------------------------------------------------------------


e-----------------------------------------------------------------------
B-----------------------------------------------------------------------
G----------7.-----------------9-----------------------------------------
D---7h9~-------9/11-9/11~------11\9p7-7~---7h9-7-7h9.-7.----------------
A--------------------------------------------------------7h9.-9\7~------
E-----------------------------------------------------------------------


e-----------------------------------------------------------------------
B-----------------------------------------------------------------------
G---------7.---------9--------------------------------------------------
D---7-7h9-----9/11~----11\9p7-7h9~------p7~----\---------7~-------------
A--------------------------------------------------7-7-9----------------
E-----------------------------------------------------------------------
                                                   x x x

e-----------------------------------------------------------------------
B-----------------------------------------------------------------------
G----------7.-----------------9-----------------------------------------
D---7h9~-------9/11-9/11~------11\9p7-7~---7h9-7-7h9.-7.----------------
A--------------------------------------------------------7h9.-9\7~------
E-----------------------------------------------------------------------


e-----------------------------------------------------------------------
B-----------------------------------------------------------------------
G---------7.--7h9~----9/11.----7~-----\---------------------------------
D---7-7h9---------------------------------------------------------------
A-----------------------------------------------------------------------
E-----------------------------------------------------------------------


Part 2

e-----------------------------------------------------------------------
B---------------------------------7-------------------------------------
G--------------------9--------------9.--7.--6.--7.----------------------
D---7h9~----9/11~-----11\9p7-7~---------------------9/11.--9.--7~-------
A-----------------------------------------------------------------------
E-----------------------------------------------------------------------


e-----------------------------------------------------------------------
B-----------------------------------------------------------------------
G---------------------------7-7-7-9-7.----------------------------------
D---7h9~--\--9/11\9/11~--\--------------9~------------------------------
A-----------------------------------------------------------------------
E-----------------------------------------------------------------------


e-----------------------------------------------------------------------
B---10h12~----12(14)--(12)(14)---(12)-10~-------------------------------
G-----------------------------------------------------------------------
D-----------------------------------------------------------------------
A-----------------------------------------------------------------------
E-----------------------------------------------------------------------


e---14-12.--10.--9.--10.------------------------------------------------
B-------------------------12(14).--12.--10~-----------------------------
G-----------------------------------------------------------------------
D-----------------------------------------------------------------------
A-----------------------------------------------------------------------
E-----------------------------------------------------------------------

e---------------------------------10-10-10-12-10.-----------------------
B---10h12.----12(14)(12)(14).----------------------12~------------------
G-----------------------------------------------------------------------
D-----------------------------------------------------------------------
A-----------------------------------------------------------------------
E-----------------------------------------------------------------------


Part 3

e-------------10.-------------------------------------------------------
B---10h12~---------12(14)(12)(14)----(12)-10~----10-10h12-10.-----------
G-------------------------------------------------------------9/11.-9~--
D-----------------------------------------------------------------------
A-----------------------------------------------------------------------
E-----------------------------------------------------------------------


e------------10.--------------------------------------------------------
B---10-10h12------12(14)----(12)-12p10-10h12~------(14)(12)p10~---------
G-----------------------------------------------------------------------
D-----------------------------------------------------------------------
A-----------------------------------------------------------------------
E-----------------------------------------------------------------------