20160205

LYLE WORKMAN AND THE FOREST RANGERS FORTUNATE SON TAB (ACOUSTIC GUITAR TAB)

Creedence Clearwater Revival - Fortunate Son instrumental acoustic guitar version
It's played by Lyle Workman & The Forest Rangers (music from Sons of Anarchy)
Download the TAB under the video



FORTUNATE SON ACOUSTIC TAB

GP5 + GP6 + PDF >>

Part 1

G1
e-----3----------------1------------------------------------------------
B----------------------------------------5-----------------3------------
G--2/4--------------4\2-------------------------------------------------
D-------------------------------------3/5---------------5\3-------------
A-----------------------------------------------------------------------
E-----------------------------------------------------------------------

G2
e----------7---------------5---------------3---------------7------------
B--------------0-------------------------------1------------------------
G--0---------0---0---5---------5-----0-------------------7--------------
D------------------3---------3---3-2-----2---2---2----------------------
A-----------------------------------------------------------------------
E-----------------------------------------------------------------------


G1
e-----3----------------1------------------------------------------------
B----------------------------------------5-----------------3------------
G--2/4--------------4\2-------------------------------------------------
D-------------------------------------3/5---------------5\3-------------
A-----------------------------------------------------------------------
E-----------------------------------------------------------------------

G2
e----------7---------------5---------------3-----------7----------------
B----------------------------------------1---1--------------------------
G--------7-----7---------5-----5-----0---------------7---7--------------
D--5---------5---5-3---------3---3-2-----------2---5-------5------------
A-----------------------------------------------------------------------
E-----------------------------------------------------------------------



G1
e-----3----------------1------------------------------------------------
B----------------------------------------5-----------------3------------
G--2/4--------------4\2-------------------------------------------------
D-------------------------------------3/5---------------5\3-------------
A---------------------------------------------------------------1'------
E------------------------------------------------------------------3----

G2
e-----------------------------------------------------------------------
B-----------------------------------------------------------------------
G------0-------0-------0-------0-------0-------0-------0-------0--------
D------------0---------------0---0-----------0---------------0----------
A-----------------------------------------------------------------------
E--3---------------3---------------3---------------3--------------------


G1
e-----3----------------1------------------------------------------------
B----------------------------------------5-----------------3------------
G--2/4--------------4\2-------------------------------------------------
D-------------------------------------3/5---------------5\3-------------
A---------------------------------------------------------------1'------
E------------------------------------------------------------------3----

G2
e-----------------------------------------------------------------------
B-----------------------------------------------------------------------
G------0-------0-------0-------0-------0-------0-------0-------0--------
D------------0---------------0---0-----------0---------------0----------
A-----------------------------------------------------------------------
E--3---------------3---------------3---------------3--------------------



Part 2

G1
e--------------------------------------------6'-------------------------
B-----8-8~--8~-----8/10~-----8\5-5/8~------------8~--8~--8~--6/8~-------
G-----------------------------------------------------------------------
D-----------------------------------------------------------------------
A-----------------------------------------------------------------------
E-----------------------------------------------------------------------

G2
e-----------------------------------------------------------------------
B------3-----------------------0-1-----1-------1-3-------3---1-0--------
G----------------------2---------------------0-0-0-----0---------0------
D----0-----------------------3-------2---------------0------------------
A--------------------3-------------3------------------------------------
E--3---------3-----1-------------------------------3--------------------






DOWNLOAD THIS TAB IN GUITAR PRO



  • click 'Free Download'
  • add your e-mail address
  • you will get an e-mail with your download links (in a few seconds)
  • download the Guitar Pro 6 tab + GP5 + PDF for free
  • and that's all ...


Guitar Pro: a complete workshop for guitarists at an affordable price