20160210

SLASH & MYLES KENNEDY PATIENCE TAB (ACOUSTIC INTRO SOLO)

Slash & Myles Kennedy - Patience live acoustic version at Max Sessions
They both use half-step down tuning, Slash's intro solo is transcribed
Download the TAB under the video



SLASH & MYLES KENNEDY PATIENCE ACOUSTIC TAB

GP5 + GP6 + PDF >>

Intro

eb---0-------0----------------------------------------------------------
Bb---1---------------3p1---0h1------------------------------------------
Gb---0-------------------------0---0-----0---------0-------0------------
Db---2-------------2-----2-------2-----0-----------------0---0-----0----
Ab---3-----------3-------------------2---------0-------2-------2--------
Eb---------------------------------------------------3-----------3------


eb--------------------------------------------0h2---2-3-2-----2---------
Bb--------2h3-2-------------2-3-2---------3-------3-------3-----3-------
Gb------2-------2---2-----2-------2-----2---2---------------2-----------
Db----2-----------2-----2-----------2-0---------------------------------
Ab--0-----------------0-------------------------------------------------
Eb----------------------------------------------------------------------


eb---------------------------------10-----------------------------------
Bb--------8~---------10-8-10(12)-----(12)(10)p8-10-8--------------------
Gb---/9-----------------------------------------------------------------
Db----------------------------------------------------------------------
Ab----------------------------------------------------------------------
Eb----------------------------------------------------------------------



eb----------7-8-9-10----------------------------------------------------
Bb---10(12)----------10(12).--8~----------------------------------------
Gb----------------------------------------------------------------------
Db----------------------------------------------------------------------
Ab----------------------------------------------------------------------
Eb----------------------------------------------------------------------


eb---------------------7/8/9~--------------10.----8.----7~----7\5~------
Bb---10---10~----------x------------------------------------------------
Gb------9--------------7/8/9~------------11-----9-----7-----7--\5~------
Db----------------------------------------------------------------------
Ab----------------------------------------------------------------------
Eb----------------------------------------------------------------------






DOWNLOAD THIS TAB IN GUITAR PRO



  • click 'Free Download'
  • add your e-mail address
  • you will get an e-mail with your download links (in a few seconds)
  • download the Guitar Pro 6 tab + GP5 + PDF for free
  • and that's all ...


Guitar Pro: a complete workshop for guitarists at an affordable price