20160327

MATCHBOX TWENTY UNWELL TAB (FINGERSTYLE)


Matchbox Twenty - Unwell acoustic fingerstyle guitar cover by The Stray Ant
It's arranged and played in standard tuning and no Capo is used
Download the TAB under the video



MATCHBOX TWENTY UNWELL FINGERSTYLE TAB

GP5 + GP6 + PDF >>

Part 1

e-------5h7p5-----------5h7p5---5---------7p5-----------5h7p5-----------
B---5h7-------7p5---5h7---------5-------------7p5---5h7-----------------
G-----------------------------------------------------------------------
D-----------------------------------0-------------0-------------0-------
A---0-------------0-----------------------------------------------------
E-----------x---------------x---------------x---------------x-----------


e-------5h7p5-----------5h7p5.--4-----------4-------5---4---------4-----
B---5h7-------7p5---5h7---------5-----------5-------5---5-------5-------
G-----------------------------------------------------------------------
D---4-------------4-----------------------------------------------------
A-----------------------------------------------------------------------
E-----------x---------------x-------0-------x-----0---------x-0---------


e-------5h7p5-----------5h7p5---5---------7p5-----------5h7p5-----------
B---5h7-------7p5---5h7---------5-------------7p5---5h7-----------------
G-----------------------------------------------------------------------
D-----------------------------------0-------------0-------------0-------
A---0-------------0-----------------------------------------------------
E-----------x---------------x---------------x---------------x-----------




e-------5h7p5-----------5h7p5.--4-----------4---------------------------
B---5h7-------7p5---5h7---------5-----------5-------5h7-----7/9---------
G-----------------------------------------------------------------------
D---4-------------4-------------------------------6-------6-------------
A-----------------------------------------------------------------------
E-----------x---------------x-------0-------x---0-------0---------------



Part 2

e-----------------------------------------------------------------------
B-------------------------------------0---2-----0-----------------------
G---2---------------1---------------2---------------2p1-----------------
D---0---------------2---------------2---------------------4---2---------
A-------------------2---------------0---------------2-------------------
E-------------------0-------------------------------0-------------------


e-----------------------------------------------------------------------
B-----------------------------------------------------------------------
G-----------2---2---1---------------------------------------------------
D---0-----0----------h4---2-----4---------------------------------------
A-------------------2---------------4-----------------------------------
E-------------------0---------------2-----------------------------------


e-----------------------------------------------------------------------
B-------------------------------------0---2-----0-----------------------
G-----------2-------1---------------2---------------2p1---------1-------
D---0-----0-------------------------2---------------------4-------------
A-------------------2---------------0---------------2-------------------
E-------------------0-------------------------------0-------------------


e-----------------------------------------------------------------------
B-----------------------------------------------------------------------
G---2-------2-------2-------1---2---2p1---1-----------------------------
D---0-----4-----4---------0---------------------4---2---2-4-------------
A-----------------------------------2---------------------------4-------
E-----------------------------------0-----------------------------------