20160320

THE ROLLING STONES DON'T STOP SOLO TAB (GUITAR SOLO TAB)


The Rolling Stones - Don't Stop guitar solo cover - guitar solo lesson
Not sure but it might be Ronnie who plays it on the original record
Download the TAB under the video



THE ROLLING STONES DON'T STOP SOLO TAB

PDF >>

e-----------------------------------------------------------------------
B-----------------------------------------------------------------------
G--------9---9h11.----9h11.----11p9------9h11p9-------------------------
D---9h11----------------------------11-9--------11-9--------------------
A-----------------------------------------------------------------------
E-----------------------------------------------------------------------


e-----------------------------------------------------------------------
B-----------------------------------------------------------------------
G----9------------------------------------------------------------------
D---x----11-9\7---9.----7h9.----9p7---7-9/11-9p7------------------------
A-----------------------------------9------------7--/-9-----------------
E-----------------------------------------------------------------------


e-----------------------------------------------------------------------
B-----------------------------------------------------------------------
G--------9---9h11.----9h11.----11p9------9h11p9-------------------------
D---9h11----------------------------11-9--------11-9--------------------
A-----------------------------------------------------------------------
E-----------------------------------------------------------------------



e-----------------------------------------------------------------------
B-----------------------------------------------------------------------
G----9------------------------------------------------------------------
D---x----11-9\7---9.----7h9.----9p7---7-9/11-9p7------------------------
A-----------------------------------9------------7---/------------------
E-----------------------------------------------------------------------