20160422

AHN JUNG-JAE 'GIRL' TAB (FINGERSTYLE GUITAR TAB)


응답하라 1988 OST '소녀' fingerstyle guitar cover by Ahn Jung-jae
It's in standard tuning and no Capo is used
Download the TAB under the video



AHN JUNG-JAE 'GIRL' FINGERSTYLE TAB

PDF >>

e-----------------------------------------------------------------------
B-----------------------------------------------------------------------
G-----------------------------------------------------------------------
D-----------------------------------------------------------------------
A-------------------------------7---------------------------------------
E---0-----0-x---0-----------x-----7-0-----0-x---0-----------x-----------
    x     x     x               x x x     x     x


e-----<12>--------------------------------------------------------------
B--<12>-----------------------------------------------------------------
G-----------------------------------------------------------------------
D-----------------------------------------------------------------------
A----------------------------------7------------------------------------
E------0-----0-x---0-----------x-----7-0-----0-x---0--------------------
       x     x     x               x x x     x     x


e------------7----7h9---/10\9p7-----------------------------------------
B---------8/9----9------------------------------------------------------
G-----------------------------------------------------------------------
D---------8/9-----------------------------------------------------------
A-----------------------------------------------------------------------
E---0-------------------------------------------------------------------
    x



e---------7.-7----7h9---/10\9p7------\----------------------------------
B---------9.-9---9------------------------------------------------------
G---------7.-7----------------------------------------------------------
D-----------------------------------------------------------------------
A-----------------------------------------------------------------------
E---0-------------------------------------------------------------------
    x


e---4---4.----2.----0-----------------5h7---/8\7p5----------------------
B-----7-------------------------x----5---------------x-2--3--4----------
G-------6.----4.----2-----------x-/6-----------------x-3--4--5----------
D-------6.----4.----2-----------x--------------------x-2--3--4------4---
A-------0.--------------------------------------------------------------
E-------------4.----2----------------------------------2--3--4----------


e---4-------4---x-------------------------------------------------------
B-----7-7-----5-x-------------------------------------------------------
G---------------------9\8\7---7-x---------------------------------------
D---------------------9\8\7---7-x---------------------------------------
A-------4-------x-9h11--------------------------------------------------
E---------------------------7---x---------------------------------------

 etc ...