20160416

SPANISH EYES INSTRUMENTAL GUITAR TAB


Blue Spanish Eyes instrumental guitar cover played by Stratpeter
Easy guitar instrumental with backing track
Download the TAB under the video



STRATPETER SPANISH EYES TAB

GP5 + GP6 + PDF >>

Part 1

        D7
e-----------------------------------------------------------------------
B-----------------------------------------------------------------------
G-----------------------------------------------------------------------
D-----4-4-4-4-4-4-4-4.--------------------------------------------------
A-----5-5-5-5-5-5-5-5.--------------------------------------------------
E-----------------------------------------------------------------------

   G
e-----------------------------------------------------------------------
B-----------------------------------------------------------------------
G-----------------------------------------------------------------------
D-----------------------------------------------------------------------
A---2-------2---------------2-2---3-5~----------------------------------
E-----------------------------------------------------------------------

                                    D7
e-----------------------------------------------------------------------
B-----------------------------------------------------------------------
G---------------------------2---4/5-5~----------------------------------
D---------------2---4/5-5-----------------------------------------------
A---2-2---3-5-----------------------------------------------------------
E-----------------------------------------------------------------------




e-----------------------------------------------------------------------
B-----------------------------------------------------------------------
G-----------------------------------------------------------------------
D-----------------------------------------------------------------------
A---12\--0-------0---------------0-0---2-3~-----------------------------
E-----------------------------------------------------------------------

                                    G          D7
e-----------------------------------------------------------------------
B-----------------------------------------------------------------------
G-------------------------------2---4~----------------------------------
D-------------------2---4/5-5-------------------------------------------
A---0-0---2-3---5-------------------------------------------------------
E-----------------------------------------------------------------------

   G
e-----------------------------------------------------------------------
B-----------------------------------------------------------------------
G-----------------------------------------------------------------------
D-----------------------------------------------------------------------
A---2-------2---------------2-2---3-5~----------------------------------
E-----------------------------------------------------------------------

    G               G7               C
e-----------------------------------------------------------------------
B-----------------------------------5~----------------------------------
G-----------------------------------------------------------------------
D---------------2---3/--5/--7---5---------------------------------------
A---2-2---3-5-----------------------------------------------------------
E-----------------------------------------------------------------------

        Cm                                   G    E
e-----------------------------------------------------------------------
B-------4-----4------------------4---6-4---3~---------------------------
G-----------------------------------------------------------------------
D---5-------------------------------------------------------------------
A-----------------------------------------------------------------------
E-----------------------------------------------------------------------

        Am              D7              G             D7
e-----------------------------------------------------------------------
B-----------------------------------------------------------------------
G---4---5-5---4p2---------------2---------------------------------------
D-------------------5---4-----5-----4/5-5~------------------------------
A-----------------------------------------------------------------------
E-----------------------------------------------------------------------





DOWNLOAD THE COMPLETE TAB HERE



  • click 'Free Download'
  • add your e-mail address
  • you will get an e-mail with your download links (in a few seconds)
  • download the Guitar Pro 6 tab + GP5 + PDF for free
  • and that's all ...


Guitar Pro: a complete workshop for guitarists at an affordable price