THE ROLLING STONES UNDER MY THUMB TAB (ELECTRIC GUITAR TAB)


The Rolling Stones - Under My Thumb electric guitar cover played by Happyhotstar
This cover follows the version from Get Yer Ya Ya's album
Download the TAB under the video



THE ROLLING STONES UNDER MY THUMB TAB

PDF >> 

Part 1

e-----------------------------------------------------------------------
B-----------------------------------------------------------------------
G---------6-------------------------------------------------------------
D-----7-9--------------6-7-9------------4-5-7------------4-5-7----------
A---9-------9.--9.--/7-------7.--7\--/5-------5.--5\--/5-------5.--5.---
E-----------------------------------------------------------------------


e-----------------------------------------------------------------------
B-----------------------------------------------------------------------
G---------6-------------------------------------------------------------
D-----7-9--------------6-7-9------------4-5-7------------4-5-7----------
A--/9-------9.--9\--/7-------7.--7\--/5-------5.--5\--/5-------5.--5.---
E-----------------------------------------------------------------------


e-----------------------------------------------------------------------
B-----------------------------------------------------------------------
G---------6-------------------------------------------------------------
D-----7-9--------------6-7-9-----------4-5-7-----------4-5-7------------
A--/9-------9.--9\--/7-------7.--7\--5-------5.--5.--5-------5.--5.-----
E-----------------------------------------------------------------------



e-----------------------------------------------------------------------
B-----------------------------------------------------------------------
G---------6-------------------------------------------x-7.----7---7-----
D-----7-9--------------6-7-9-----------4-5-7----------x-7.----7---7-----
A--/9-------9.--9\--/7-------7.--7\--5-------5.--5.---x-5.----5---5-----
E-----------------------------------------------------------------------


e-----------------------------------------------------------------------
B-----------------------------------------------------------------------
G-----------------------------------------------------------------------
D---7-9-9/11-11.-11~-\---6-7-9------------4-5-7------------4-5-7--------
A-/9------------------/7-------7.--7\--/5-------5.--5\--/5-------5.--5.-
E-----------------------------------------------------------------------


e-----------------------------------------------------------------------
B-----------------------------------------------------------------------
G---------6-------------------------------------------x-7.----7---7-----
D-----7-9--------------6-7-9-----------4-5-7----------x-7.----7---7-0---
A--/9-------9.--9\--/7-------7.--7\--5-------5.--5.---x-5.----5---5-0---
E-----------------------------------------------------------------------



Part 2

e-----------------------------------------------------------------------
B-----------------------------------------------------------------------
G--x---11--------\---9.--7-9.---9\7---------x---x-7.----7-7.------------
D--x---11--------\---9.--7-9.---9\7---------x---x-7.----7-7.------------
A--x---9---------\---7.----7.---7\5---------x-----5.----5-5.------------
E-----------------------------------------------------------------------


e-----------------------------------------------------------------------
B-----------------------------------------------------------------------
G------11------------9.--7-9.--7-----7.--x-7.----x-7.----7---7----------
D------11------------9.--7-9.--7-----7.--x-7.----x-7.----7---7-0--------
A------9-------------7.--7-7.--5-----5.--x-5.----x-5.----5---5-0--------
E-----------------------------------------------------------------------


e-----------------------------------------------------------------------
B-----------------------------------------------------------------------
G----------------2------4(6)------(4)-2---2~----2-4(6)-4(6)---4~--------
D-2----------2-4------------------------4-----4-------------------------
A-0-------/4------------------------------------------------------------
E-----------------------------------------------------------------------

 etc ...