20160525

HOUSE OF THE RISING SUN INSTRUMENTAL GUITAR TAB


The Animals - House of the Rising Sun instrumental guitar cover by "agentman1991"
Awesome guitar instrumental with backing track in the style of The Ventures
Download the TAB under the video



HOUSE OF THE RISING SUN INSTRUMENTAL TAB

GP6 + GP5 + PDF >>

Part 1

e----------0----------------0----------------2----------------1---------
B-------1-----1----------1-----1----------3-----3----------1-----1------
G------2---------2------0---------0------2---------2------2---------2---
D-----2----------------2-------------0--0-------------3--3--------------
A--0----------------3---------------------------------------------------
E-----------------------------------------------------------------------


e----------0------------------------------------------------------------
B-------1-----1-------------3--1--0-------1--1-p0-----------------------
G------2---------2-------1---------------2---------2--1-----------------
D-----2-----------------0---------------2-------------0-----------------
A--0-------------------2-------------0----------------2-----------------
E-------------------0---------------------------------------------------


Part 2

e-----------------------------------------------------------------------
B-----------------------------------------------------------------------
G-----------------------------------------------------------------------
D----------------------------0h2-0--------------------------------------
A--0--0---------2--2h3~------------0-0----------------------------------
E-----------------------------------------------------------------------



e-----------------------------------------------------------------------
B-----------------------------------------------------------------------
G-----------------------------------------------------------------------
D------5--7--5h7~-------5h7-5~------------------------------------------
A--/7------------------------------7\5-3--5--5(7)~~~--------------------
E-----------------------------------------------------------------------


e-----------------------------------------------------------------------
B-----------------------------------------------------------------------
G-----------------------------------------------------------------------
D------5--7--5h7~-------5h7-5~------------------------------------------
A--/7------------------------------7\5-3--5--5(7)-----------------------
E-----------------------------------------------------------------------


e-----------------------------------------------------------------------
B-----------------------------------------------------------------------
G-----------------------------------------------------------------------
D-----------------------------------------------------------------------
A--5(7)(5)--3--3-----3--------------------------------------------------
E-----------------5-----5p3-0--3--3(5)(3)(5)--------(5)(3)-0------------


e----------0----------------0----------------2----------------1---------
B-------1-----1----------1-----1----------3-----3----------1-----1------
G------2---------2------0---------0------2---------2------2---------2---
D-----2----------------2-------------0--0-------------3--3--------------
A--0----------------3---------------------------------------------------
E-----------------------------------------------------------------------


e----------0------------------------------------------------------------
B-------1-----1-------------3--1--0-------1--1-p0-----------------------
G------2---------2-------1---------------2---------2--1-----------------
D-----2-----------------0---------------2-------------0-----------------
A--0-------------------2-------------0----------------2-----------------
E-------------------0---------------------------------------------------


Part 3

e-----------------------------------------------------------------------
B--------------------------------------5--------------------------------
G-------------------/4--5p4h5~---------7(9)---(7)(9)---(7)p5------------
D---/7--7~-----\---------------------------------------------7~-----\---
A-----------------------------------------------------------------------
E-----------------------------------------------------------------------


e-----------------------------------------------------------------------
B-------8---8h10-10~-------------8h10.--8~------------------------------
G---/9----9-------------------------------------------------------------
D-----------------------------------------------------------------------
A-----------------------------------------------------------------------
E-----------------------------------------------------------------------
 





DOWNLOAD THIS TAB IN GUITAR PRO



  • click 'Free Download'
  • add your e-mail address
  • you will get an e-mail with your download links (in a few seconds)
  • download the Guitar Pro 6 tab + GP5 + PDF for free
  • and that's all ...