20160620

CHRIS BRANIFF NIGHT TRAIN TAB (GUITAR INSTRUMENTAL)


Chris Braniff (The Young Shadow) plays Night Train with his Fender Stratocaster
Easy guitar instrumental with backing track
Download the TAB under the video



CHRIS BRANIFF NIGHT TRAIN TAB


Part 1

e-----------------------------------------------------------------------
B-----------------------------------------------------------------------
G-----2-4-5---------------------------5---4-----------------------------
D---2-----------------2---3---------------------------0---2-------------
A-----------------------------------------------------------------------
E-----------------------------------------------------------------------


e-----------------------------------------------------------------------
B-----------------------------------------------------------------------
G---------2-------------------------------------------------------------
D-----2-5-----5---3---2---2-------1---2/4---2---------------------------
A---3-------------------------------------------------------------------
E-----------------------------------------------------------------------


e-----------------------------------------------------------------------
B-----------------------------------------------------------------------
G-----2-4-5---------------------------5---4-----------------------------
D---2-----------------2---3---------------------------0---2-------------
A-----------------------------------------------------------------------
E-----------------------------------------------------------------------



e-----------------------------------------------------------------------
B-----------------------------------------------------------------------
G---------2-------------------------------------------------------------
D-----2-5-----5---3---2---2-------1---2/4---2---------------------------
A---3-------------------------------------------------------------------
E-----------------------------------------------------------------------


Part 2

e---------------0---------------2---------------0-----------------------
B---------------2---------------3---------------2-----------------------
G---1---2---4---2---------------2---------------2-----------------------
D-----------------------------------------------------------------------
A-----------------------------------------------------------------------
E-----------------------------------------------------------------------


e---------------0---------------2---------------0-----------------------
B---------------2---------------3---------------2-----------------------
G---2---2---4---2---------------2---------------2-----------------------
D-----------------------------------------------------------------------
A-----------------------------------------------------------------------
E-----------------------------------------------------------------------