20161008

ELTON JOHN CAN YOU FEEL THE LOVE TONIGHT TAB (ELECTRIC GUITAR INSTRUMENTAL TAB)

Can You Feel The Love Tonight instrumental electric guitar cover by Stephen Peters
It's arranged in 1 step down tuning (so DGCFAD)
Download the TAB under the video



CAN YOU FEEL THE LOVE TONIGHT INSTRUMENTAL TAB

GP5 + GP6 + PDF >>

Part 1

D-----------------------------------------------------------------------
A-----------------------------------------------------------------------
F--------4-5---5/7\5--------------------4-5---5/7--\5~------------------
C------7---------------5-5~-----------7---------------------------------
G-----------------------------------------------------------------------
D-----------------------------------------------------------------------


D-----------------------------------------------------------------------
A-------------------6-----5h6p5-------6~-----5h6p5----------------------
F-------4-5---------------------7---5--------------7---5-7~-------------
C---7-------------5-----------------------------------------------------
G-----------------------------------------------------------------------
D-----------------------------------------------------------------------


D-----------------------------------------------------------------------
A-----------------------------------------------------------------------
F-------------------4-5---5/7-5-----------------------------------------
C---5\3\2---------7---------------5-5~----------------------------------
G---------3\2----------------------------5h7p5\3------------------------
D-------------1.-----------------------------------1--------------------




D-------------------------8\7-------------------------------------------
A-----------------------8-----8-8/10-----8.-6-----5-5(6)---(5)----------
F-----4-5---7/9~------9----------------------------------------7--------
C---7--------------10---------------------------------------------------
G-----------------------------------------------------------------------
D-----------------------------------------------------------------------


D-----------------------------------------------------------------------
A-----------------------------------------------------------------------
F---5-7~----------7h9-7~-------\----------------------------------------
C-----------------------------------------------------------------------
G-----------------------------------------------------------------------
D-----------------------------------------------------------------------


Part 2

D---------------------------7h8p7---------------------------------------
A-----8---------------------------8---8\5-------5-6-5h6p5---------------
F------------/9---7~----\-----------7---------5-----------7-5-----------
C---5---------------------------------------5-----------------7---------
G-----------------------------------------------------------------------
D-----------------------------------------------------------------------


D-----------------------------------------------------------------------
A---------6---5---\-------5-8-6---5-h6p5--------------------------------
F-------5---------------5----------------7-----5-5/7~-------------------
C-----7---------------5-------------------------------------------------
G---8-------------------------------------------------------------------
D-----------------------------------------------------------------------






DOWNLOAD THIS TAB IN GUITAR PRO



  • click 'Free Download'
  • add your e-mail address
  • you will get an e-mail with your download links (in a few seconds)
  • download the Guitar Pro 6 tab + GP5 + PDF for free
  • and that's all ...


Guitar Pro: a complete workshop for guitarists at an affordable price