20161030

EMMA'S LULLABY TAB (ACOUSTIC GUITAR TAB)


Kenzie Nimmo & Harris Heller play Emma's Lullaby with a single acoustic guita
Easy fingerpicking guitar song in standard tuning with Capo on the 3rd fret
Download the TAB under the video



EMMA'S LULLABY ACOUSTIC TAB

GP5 + GP6 + PDF >>

Intro                        CAPO on the 3rd

e-----------------------------------------------------------------------
B-------3-----3---------3-----3-----------------------------------------
G-----0-----0-----0---0-----0-----0-------------------------------------
D-----------------------------------------------------------------------
A---3-----3-----3---3-----3-----3---------------------------------------
E-----------------------------------------------------------------------


Verse

e-----------------------------------------------------------------------
B-------3-----3---------3-----3---------3-----3---------3-----3---------
G-----0-----0-----0---0-----0-----0---0-----0-----0---2-----2-----0-----
D-----------------------------------------------------------------------
A---3-----3-----3---3-----3-----3---------------------------------------
E-----------------------------------3-----3-----3---2-----2-----2-------


e-----------------------------------------------------------------------
B-------3-----3---------3-----3---------3-----3---------3-----3---------
G-----0-----0-----0---2-----2-----0---0-----0-----0---0-----0-----0-----
D-----------------------------------------------------------------------
A-----------------------------------3-----3-----3---3-----3-----3-------
E---0-----0-----0---2-----2-----2---------------------------------------



e-----------------------------------------------------------------------
B-------3-----3---------3-----3---------3-----3---------3-----3---------
G-----0-----0-----0---0-----0-----0---0-----0-----0---2-----2-----0-----
D-----------------------------------------------------------------------
A---3-----3-----3---3-----3-----3---------------------------------------
E-----------------------------------3-----3-----3---2-----2-----2-------


e-----------------------------------------------------------------------
B-------3-----3---------3-----3---------3-----3---------3-----3---------
G-----0-----0-----0---2-----2-----0---0-----0-----0---0-----0-----0-----
D-----------------------------------------------------------------------
A-----------------------------------3-----3-----3---3-----3-----3-------
E---0-----0-----0---2-----2-----2---------------------------------------


Bridge

e-----------------------------------------------------------------------
B-------3-----3---------3-----3---------3-----3---------3-----3---------
G-----0-----0-----0---2-----2-----0---0-----0-----0---0-----0-----0-----
D-----------------------------------------------------------------------
A---------------------------------------------------3-----3-----3-------
E---0-----0-----0---2-----2-----2---3-----3-----3-----------------------


e---------------------------------------------------0-------------------
B-------3-----3---------3-----3---------3-----3-----3-------------------
G-----0-----0-----0---2-----2-----0---0-----0-----0-0-------------------
D---------------------------------------------------2-------------------
A---------------------------------------------------3-------------------
E---0-----0-----0---2-----2-----2---3-----3-----3-----------------------


Chorus

e-----------------------------------------------------------------------
B-------3-----3---------3-----3---------3-----3---------3-----3---------
G-----0-----0-----0---2-----2-----0---0-----0-----0---0-----0-----0-----
D-----------------------------------------------------------------------
A-----------------------------------3-----3-----3---3-----3-----3-------
E---3-----3-----3---2-----2-----2---------------------------------------


e-----------------------------------------------------------------------
B-------3-----3---------3-----3---------3-----3---------3-----3---------
G-----0-----0-----0---2-----2-----0---0-----0-----0---0-----0-----0-----
D-----------------------------------------------------------------------
A-----------------------------------3-----3-----3---3-----3-----3-------
E---3-----3-----3---2-----2-----2---------------------------------------


e---------------------------------------------------0-------------------
B-------3-----3---------3-----3---------3-----3-----3-------------------
G-----0-----0-----0---2-----2-----0---0-----0-----0-0-------------------
D---------------------------------------------------2-------------------
A-----------------------------------3-----3-----3---3-------------------
E---0-----0-----0---2-----2-----2---------------------------------------


e-----------------------------------------------------------------------
B-------3-----3---------3-----3---------3-----3---------3-----3---------
G-----0-----0-----0---2-----2-----0---0-----0-----0---0-----0-----0-----
D-----------------------------------------------------------------------
A-----------------------------------3-----3-----3---3-----3-----3-------
E---3-----3-----3---2-----2-----2---------------------------------------