20161013

SLASH & MYLES KENNEDY BACK FROM CALI TAB (ACOUSTIC GUITAR TAB)


Slash & Myles Kennedy - Back From Cali live acoustic unplugged version
It's in half-step-down tuning and the intro riff (main riff) is transcribed
Download the TAB under the video



BACK FROM CALI ACOUSTIC TAB

DOWNLOAD >>

Intro

eb-----------------------------------------------------------------------
Bb----------0-------3-0.--0.--0-----0-------x-------5\3.--3--------------
Gb---4------2h4.----4-4.--2.--4p2.--1~------x-------------2---2----------
Db---4------4-------4-----4.--4-----2~------x---4/6-6\4.--4--------------
Ab---2----------------------------------------------------------0.-------
Eb-----------------------------------------------------------------------


eb-----------------------------------------------------------------------
Bb----------0-------3-0.--0.--0-----0-------x-------5\3.--3--------------
Gb---4------2h4.----4-4.--2.--4p2.--1~------x-------------2---2----------
Db---4------4-------4-----4.--4-----2~------x---4/6-6\4.--4--------------
Ab---2----------------------------------------------------------0.-------
Eb-----------------------------------------------------------------------


eb-----------------------------------------------------------------------
Bb----------0-------3-0.--0.--0-----0-------x-------5\3.--3--------------
Gb---4------2h4.----4-4.--2.--4p2.--1~------x-------------2---2----------
Db---4------4-------4-----4.--4-----2~------x---4/6-6\4.--4--------------
Ab---2----------------------------------------------------------0.-------
Eb-----------------------------------------------------------------------

 

eb----------------------------------0-------x----------------------------
Bb----------0-------3-0.--0.--0-----0-------x-------5\3------------------
Gb---4------2h4.----4-4.--2.--4p2.---------------------------------------
Db---4------4-------4-----4.--4-----2~------x---4/6----------------------
Ab---2-------------------------------------------------------------------
Eb-----------------------------------------------------------------------