20161104

DARIUS RUCKER HOMEGROWN HONEY TAB (ACOUSTIC GUITAR SOLO TAB)


Darius Rucker - Homegrown Honey acoustic version played with 2 guitars and a banjo
The acoustic guitar solos are in standard tuning with Capo on the 2nd fret
Darius has the Capo on the 1st - this gives the special sound
Download the TAB of the solo parts below


HOMEGROWN HONEY ACOUSTIC TAB

GP5 + GP6 + PDF >>

Intro Solo                     - CAPO on the 2nd -

e-----------------------------------------------------------------------
B-----------------------------------------------------------------------
G-----------4.--6-6/8~--------------------------------------------------
D---4-4-6.--------------------------------------------------------------
A-----------------------------------------------------------------------
E-----------------------------------------------------------------------


e-----------------------------------------------------------------------
B--------------------------------7~-------------------------------------
G---------------4.--6-6/8~----------------8\6p4-------------------------
D---x-x-4-4-6.---------------------------------6~-----------------------
A-----------------------------------------------------------------------
E-----------------------------------------------------------------------


e-----------------------------------------------------------------------
B-------------------------7~--------------------------------------------
G---------------4.--6-6/8~----------------------------------------------
D---6-0-4-4-6.----------------------------------------------------------
A-----------------------------------------------------------------------
E-----------------------------------------------------------------------



e-----------------------------------------------------------------------
B-------------------------7~--------------------------------------------
G---8-0---------4.--6-6/8~----------------------------------------------
D-------4-4-6.----------------------------------------------------------
A-----------------------------------------------------------------------
E-----------------------------------------------------------------------


e-----------------------------------------------------------------------
B-------------------------7~---------7~---------------------------------
G---8-0---------4.--6-6/8~-------6/8~-----8\6p4-------------------------
D-------4-4-6.---------------------------------6~-------6-0-------------
A-----------------------------------------------------------4-(5)-------
E-----------------------------------------------------------------------