20161114

THE ROCKY ROAD TO DUBLIN TAB (TENOR GUITAR TAB)


The Rocky Road To Dublin tenor guitar cover played by David Hansen
The tuning is GDAE (from the lower to the higher string)
Download the TAB under the video



THE ROCKY ROAD TO DUBLIN TAB

GP5 + GP6 + PDF >>

E---0-1-0--------------------------0-1-0--------------------------------
A---------5-3-2-0------0-0--2-3--5-------5--3-0--3-2-------0-2-3-5------
D-------------------2---------------------------------5-5---------------
G-----------------------------------------------------------------------


E---0-1-0--------------------------0-1-0--------------------------------
A---------5-3-2-0------0-0--2-3--5-------5--3-0--3-2-------0-2-3-5------
D-------------------2---------------------------------5-5---------------
G-----------------------------------------------------------------------


E---0--5-5--2-3---0--5-5----------0--5-5--2-3.-0------------------------
A-------------------------0-2-3-5----------------5--2----0-2-3-5--------
D-----------------------------------------------------5-----------------
G-----------------------------------------------------------------------


E---0--5-5--2-3---0--5-5----------0--5-5--2-3.-0------------------------
A-------------------------0-2-3-5----------------5--2----0-2-3-5--------
D-----------------------------------------------------5-----------------
G-----------------------------------------------------------------------




 ... 4 times

 ... then the end is ...

E---0-1-0---------------------------------------------------------------
A---------5-3-2-0-------------------------------------------------------
D-----------------------------------------------------------------------
G-----------------------------------------------------------------------