20161123

THE SHADOWS SLEEPWALK GUITAR PRO TAB


Sleepwalk is a legendary instrumental guitar song by Hank Marvin and The Shadows
This record is on the album "Rock on with the Shadows" from 1961
Download the TAB under the video



THE SHADOWS SLEEPWALK TAB

GP5 + GP6 + PDF >>

Part 1
                                tremolo
e--------------12/15~---------------------------15.---------------------
B------------13---------------------------------------------------------
G------12-14-----------------12-(11)-(12)~-----------12~----------------
D-----------------------------------------------------------------------
A-----------------------------------------------------------------------
E-----------------------------------------------------------------------

                         tremolo
e-----------------------------------------------------------------------
B---------13-13~-------8-(7)-(8)~---------------------------------------
G---12-14---------------------------------------------------------------
D-----------------------------------------------------------------------
A-----------------------------------------------------------------------
E-----------------------------------------------------------------------


e--------------------8~-------------------------------------------------
B---6-8-8h9-8~---6\5-----------8---8~-----------------------------------
G-----------------------------------------------------------------------
D-----------------------------------------------------------------------
A-----------------------------------------------------------------------
E-----------------------------------------------------------------------



e--------------------------------3--------------------------------------
B---6-8-8h9-8~---6\5-5~------3/5---5------------------------------------
G------------------------------------5----------------------------------
D--------------------------------------7~-------------------------------
A-----------------------------------------------------------------------
E-----------------------------------------------------------------------


e-----------------------------------------------------------------------
B-----------------------------------------------------------------------
G---5.--5~---5-5-5.---4~------------------------------------------------
D---6.--6~---6-6-6.---5~------------------------------------------------
A-----------------------------------------------------------------------
E-----------------------------------------------------------------------

                               tremolo
e--------------12/15~---------------------------------------------------
B------------13---------------------------------------------------------
G------12-14----------------12-(11)-(12)~-------------------------------
D-----------------------------------------------------------------------
A-----------------------------------------------------------------------
E-----------------------------------------------------------------------


e-----------------------------------------------------------------------
B---------13-13~-------8---8~-------------------------------------------
G---12-14---------------------------------------------------------------
D-----------------------------------------------------------------------
A-----------------------------------------------------------------------
E-----------------------------------------------------------------------


e--------------------8~-------------------------------------------------
B---6-8-8h9-8~---6\5-----------8---8~-----------------------------------
G-----------------------------------------------------------------------
D-----------------------------------------------------------------------
A-----------------------------------------------------------------------
E-----------------------------------------------------------------------