20161209

I'M SO LONESOME I COULD CRY TAB (FINGERPICKING GUITAR TAB)


Hank Williams - I'm So Lonesome I Could Cry acoustic guitar cover by AA Bondy
It's played in standard tuning with CAPO on the 2nd fret
Download the TAB under the video



I'M SO LONESOME I COULD CRY  ACOUSTIC TAB

PDF >>

Intro                   - Capo on the 2nd -

e-------------0---------------------------------------------------------
B---1-----------------1-------0-----0h1-------0-------1-------1---------
G---------0-------0-------0-------0-------0-------0-------0-------0-----
D-------2-------2-------2-------2-------2-------2-------2-------2-------
A---3---------------3---------------3---------------3-------------------
E-----------3---------------3---------------3---------------3-----------


e-------------------------3p0-----------------0-----3---0-----0---------
B-----1-----3p1---1-------------3p1-----1-------------------3-----------
G---------2-----2-----0-------0-----0-----0-------0-------0-------0-----
D-------3-------3-------2-------2-------2-------2-------2-------2-------
A-------------------3-------3-------3-------3-------3-------3-----------
E---1-------1-----------------------------------------------------------


e-------3-----3-----1-------------------------0---------------0---------
B-----------------0-----------------1---------------0h1-----------------
G-------------------------0-------0-------0-------0-------0-------------
D-------0-------0-------0-------0-------2-------2-------2-------2-------
A---------------------------0h2-----3---------------3-------------------
E---3-------3-------3-----------------------3---------------3-----------



e-----------0-----------------0---------------0-----1-------------------
B-------1-------3.--1---------------0h1---------------------0-----------
G---2---------------------0-------0-------0-------0-------0-------0-----
D-------3-------3.------2-------2-------2-------2-------0-------0-------
A-------------------3---------------3-----------------------------------
E---1-------1---------------3---------------3-------3-------3-----------


e-------------0---------------0-------0-------0---------------0---------
B---1---------------1-------------------------------1-------------------
G---------0-------0-------0-------0-------0-------0-------0-------0-----
D-------2-------2-------2-------2-------2-------2-------2-------2-------
A---3---------------3---------------3---------------3-------------------
E-----------3---------------3---------------3---------------3-----------


Verse

e-------------0---------------0-------0-------0---------------0---------
B---1-----------------1-------------------------------1-----------------
G---------0-------0-------0-------0-------2-------0-------0-------0-----
D-------2-------2-------2-------2-------3-------3-------2-------2-------
A---3---------------3-------------------------------3-------------------
E-----------3---------------3-------1-------1---------------3-----------

 etc ...