DOROTHY AFTER MIDNIGHT TAB (JAMINTHEVAN)


Dorothy - After Midnight played live in Austin, Texas (2015)
Standard tuning, download the TAB below



DOROTHY AFTER MIDNIGHT TAB

PDF >>

e-----------------------------------------------------------------------
B-----------------------------------------------------------------------
G---6-4~----------------------------------------------------------------
D-----------4-2'--------------------------------------------------------
A-----------------------------------------------------------------------
E-----------------------------------------------------------------------


Verse

e-----------------------------------------------------------------------
B-----------------------------------------------------------------------
G-----------------------------------------------------------------------
D---6-6.--6-------\------------------6-6.--6-------\--------------------
A---4-4.--4-------\------------------4-4.--4-------\--------------------
E---4-4.--4-------\------------------4-4.--4-------\--------------------


e-----------------------------------------------------------------------
B-----------------------------------------------------------------------
G----------------------------------------------------6-4~---------------
D---6-6.--6-------\------------------4-4-----4---4-4---------4-2'-------
A---4-4.--4-------\------------------2-2-----2---2-2--------------------
E---4-4.--4-------\------------------2-2-----2---2-2--------------------



e-----------------------------------------------------------------------
B-----------------------------------------------------------------------
G--------------------------------------------------4-6-4----------------
D---6-6.--6-------\--------------x-x-6-6.--6-------------6-4-6-4--------
A---4-4.--4-------\--------------x-x-4-4.--4---------------------7------
E---4-4.--4-------\--------------x-x-4-4.--4----------------------------


e-----------------------------------------------------------------------
B-----------------------------------------------------------------------
G----------------------------------------------------6-4~---------------
D---6-6.--6-------\--------------x-x-4-4-----4---4-4---------4-2'-------
A---4-4.--4-------\--------------x-x-2-2-----2---2-2--------------------
E---4-4.--4-------\--------------x-x-2-2-----2---2-2--------------------

 etc ...