20170119

THE ANIMALS HOUSE OF THE RISING SUN INSTRUMENTAL GUITAR TAB


The Animals - House of the Rising Sun instrumental guitar cover by Burns Ernst
Easy guitar instrumental with backing track
Download the TAB under the video



BURNS ERNST HOUSE OF THE RISING SUN TAB


Part 1

 Am / C / D / F /
 Am / E / Am / E /

      Am          C            D         F
e-----------------------------------------------------------------------
B-----------------------------------------------------------------------
G-----------------------------------------------------------------------
D-----------------------------------------------------------------------
A-----0---------2-3---------/7-5---0-----0------------------------------
E---0-------------------------------------------------------------------

      Am          C            E
e-----------------------------------------------------------------------
B-----------------------------------------------------------------------
G-----------------------------------------------------------------------
D---7-7~--------7-5~----------------------------------------------------
A--------------------------7-5-7~---------------------------------------
E-----------------------------------------------------------------------

         Am          C             D             F
e-----------------------------------------------------------------------
B-----------------------------------------------------------------------
G-----------------------------------------------------------------------
D---/7-7-7~--------7-5-\-2~------2-0------------------------------------
A--------------------------------------0-----0-0-3~---------------------
E-----------------------------------------------------------------------




      Am          E                   Am
e-----------------------------------------------------------------------
B-----------------------------------------------------------------------
G-----------------------------------------------------------------------
D-----------------------------------------------------------------------
A---0-0---------0---------------------0---------------------------------
E-----------------3(4)---0-----3(4)-------------------------------------

 (Am) / C / D / F /
  Am / E / Am / E //


Part 2
     
      Am          C           D          F
e-----------------------------------------------------------------------
B-----------------------------------------------------------------------
G-----------------------------------------------------------------------
D---7-7~--------7-5~----------------------------------------------------
A---------------------------7-5\--0-------------------------------------
E-----------------------------------------------------------------------

    Am          C               E
e-----------------------------------------------------------------------
B------------------------ tremolo bar ----------------------------------
G-----------------------------------------------------------------------
D---7~--------7-5~------------------------------------------------------
A------------------------7-(6)-(7)~-------------------------------------
E-----------------------------------------------------------------------