20170219

TU VUOI DA ME QUALCOSA SOLO TAB (ELECTRIC GUITAR SOLO TAB)

Vasco Rossi - Tu Vuoi Da Me Qualcosa electric guitar solo played by Stef Burns
It starts about 4:02 in this live version and goes until about 4:30 ...
Download the TAB under the video



VASCO ROSSI TU VUOI DA ME QUALCOSA SOLO TAB

GP5 + GP6 + PDF >>

(4:02 - 4:30)

e-----------------------------------------------------------------------
B-------------------10~----------9~----------12~------------------------
G---------------9-------------------------------------------------------
D-------------9---9-----------------------------------------------------
A-------7-/11-----------------------------------------------------------
E---7h9-----------------------------------------------------------------


e-----------------------------------------------------------------------
B-----------------------------------------------------------------------
G---11~----------9~-----------(13)---(11)-------------------------------
D--------------------------------------------/13~---------h14p13p11~----
A-----------------------------------------------------------------------
E-----------------------------------------------------------------------


e-----------------------------------------------------------------------
B-----------------------------------------------------------------------
G-------11(13)---(11)(13)-------(11)p9-11~------------------------------
D---9h11----------------------------------------------------------------
A-----------------------------------------------------------------------
E-----------------------------------------------------------------------



e--------12--14--17~-----------16~-----------17(19)---------------------
B------12--12--12-------------------------------------------------------
G---/13-----------------------------------------------------------------
D-----------------------------------------------------------------------
A-----------------------------------------------------------------------
E-----------------------------------------------------------------------


e---19(21)~~~-------------19-17-16---17-19-16(17)-------16--------------
B----------------------------------------------------------17~----------
G-----------------------------------------------------------------------
D-----------------------------------------------------------------------
A-----------------------------------------------------------------------
E-----------------------------------------------------------------------


e--------16--h19--------------------------------------------------------
B---17h19--------19-----------------10-9--------------------------------
G------------------16-16~----------------9-11-------9-9/11---9----------
D-----------------------------------------------9h11--9/11---9----------
A-----------------------------------------------------------------------
E----------------------------------------------------------------0------




DOWNLOAD THIS SOLO TAB IN GUITAR PRO



  • click 'Free Download'
  • add your e-mail address
  • you will get an e-mail with your download links (in a few seconds)
  • download the Guitar Pro 6 tab + GP5 + PDF for free
  • and that's all ...


Guitar Pro: a complete workshop for guitarists at an affordable price