20170325

BURNS ERNST BLUEING TAB


Burns Ernst plays an instrumental guitar cover of Blueing
The original song was composed and played by Matti Luhtala
Download the TAB under the video



BURNS ERNST BLUEING TAB

GP6 + PDF >>

Intro

e-----------------------------------------------------------------------
B-----------------3---------------3-------------------------------------
G---4---------2-4---4~--------2-4---4~--------2-4-2---------------------
D---------------------------------------------------2-------------------
A-----------------------------------------------------------------------
E-----------------------------------------------------------------------


Verse

e-------------/7--7--7--5.-----3-------2h3-2----------------------------
B------0---1----------------5----------------3---------3----------------
G--2-------------------------------------------4~---------4.------------
D------------------------------------------------------------4--2~------
A-----------------------------------------------------------------------
E-----------------------------------------------------------------------


e--------------------------------------------------------3--2-----------
B--------------------------------------------------------------3--0-----
G-----------------------------------------------------------------------
D---------------5--5--5--5--5/7--4-------4h5-4-0------------------------
A--0---2---2h3-----------------------------------2----------------------
E-----------------------------------------------------------------------



e-------------/7--7--7--5.-----3-------2h3-3/5-2~-----------------------
B------0---1----------------5--------------------------3----------------
G--2------------------------------------------------------4-------------
D------------------------------------------------------------4--2~------
A-----------------------------------------------------------------------
E-----------------------------------------------------------------------


e----------------------------------------------------------0------------
B--------------------------------------------------------0--------------
G------------------------------------------------------0----------------
D-----------5--5--5--5-/7--4-------4h5-4-0-2~--------2------------------
A--0--2--3--------------------------------------------------------------
E-----------------------------------------------------------------------

 etc ...