20170320

WILLIE NELSON O'ER THE WAVES TAB (ACOUSTIC GUITAR SOLO TAB)


Willie Nelson - O'er The Waves easy acoustic guitar solo played on nylon strings
Old school country solo from the album Red Headed Stranger (1975)
Download the TAB under the video



WILLIE NELSON O'ER THE WAVES ACOUSTIC SOLO TAB

GP5 + GP6 + PDF >>

e-------------------------------3---------------------------------------
B---3-----------------------3---0---------------------------------------
G-----5-4-----------3---4---0---0---------------------------------------
D---------------------------0-------------------------------------------
A-----------------------------------------------------------------------
E-----------------------------------------------------------------------


e---2----3-5---3.----2-3------------------------------------------------
B------------------------------3/--7------------------------------------
G--------------------------4--------------------------------------------
D-----------------------------------------------------------------------
A-----------------------------------------------------------------------
E-----------------------------------------------------------------------


e-----------------------------------------------------------------------
B-----------------------3/--7-------------------------------------------
G---5-----------4---5---------------------------------------------------
D-----------------------------------------------------------------------
A-----------------------------------------------------------------------
E-----------------------------------------------------------------------

 etc ...