20170420

ALELA DIANE LADY DIVINE TAB (ACOUSTIC GUITAR TAB)


Alela Diane sings Lady Divine with a single acoustic guitar
It's in standard tuning with Capo on the 7th fret
Download the TAB under the video



LADY DIVINE ACOUSTIC TAB

PDF + GUITAR PRO >>

Intro

e-----------------------------------------------------------------------
B---------0-------0-------0-------0-------0-------0-------0-------0-----
G-----0-------0-------0-------0-------0-------0-------0-------0---------
D-------0-------0-------0-------0-------0-------0-------0-------0-------
A-----------2---------------2---------------2---------------2-----------
E---3---------------3---------------3---------------3-------------------


Verse

e-----------------------------------------------------------------------
B---------0-------0-------0-------1-------1-------1-------1-------0-----
G-----0-------0-------0-------0-------0-------0-------0-------0---------
D-------0-------0-------0-------0-------2-------2-------2-------0-------
A-----------2---------------2-------3-------3-------3-------3-----------
E---3---------------3---------------------------------------------------


e-----------------------------------------------------------------------
B---------0-------0-------0-------1-------1-------1-------1-------0-----
G-----0-------0-------0-------0-------0-------0-------0-------0---------
D-------0-------0-------0-------0-------2-------2-------2-------0-------
A-----------2---------------2-------3-------3-------3-------3-----------
E---3---------------3---------------------------------------------------



e-----------------------------------------------------------------------
B-------1---------1-----1---------0-----0---------0-----0---------0-----
G-------0-----0---------0-----0---------0-----0---------0-----0---------
D-------2-------2-------2-------2-------2-------2-------2-------0-------
A---0-------0-------0-------0-------3-------3-------3-------3-----------
E-----------------------------------------------------------------------


e-----------------------------------------------------------------------
B---------0-------0-------0-------0-------0-------0-------0-------1-----
G-----0-------0-------0-------0-------0-------0-------0-------0---------
D-------0-------0-------0-------0-------0-------0-------0-------0-------
A-----------2---------------2---------------2---------------2-----------
E---3---------------3---------------3---------------3-------------------


e-----------------------------------------------------------------------
B-------1---------1-----1---------0-----0---------0-----0---------0-----
G-------0-----0---------0-----0---------0-----0---------0-----0---------
D-------2-------2-------2-------2-------2-------2-------2-------0-------
A---0-------0-------0-------0-------3-------3-------3-------3-----------
E-----------------------------------------------------------------------


e-----------------------------------------------------------------------
B---------0-------0-------0-------0-------0-------0-------0-------1-----
G-----0-------0-------0-------0-------0-------0-------0-------0---------
D-------0-------0-------0-------0-------0-------0-------0-------0-------
A-----------2---------------2---------------2---------------2-----------
E---3---------------3---------------3---------------3-------------------


e-----------------------------------------------------------------------
B-------1---------1-----1---------0-----0---------0-----0---------0-----
G-------0-----0---------0-----0---------0-----0---------0-----0---------
D-------2-------2-------2-------2-------2-------2-------2-------0-------
A---0-------0-------0-------0-------3-------3-------3-------3-----------
E-----------------------------------------------------------------------


e-----------------------------------------------------------------------
B---------0-------0-------0-------0-------0-------0-------0-------1-----
G-----0-------0-------0-------0-------0-------0-------0-------0---------
D-------0-------0-------0-------0-------0-------0-------0-------0-------
A-----------2---------------2---------------2---------------2-----------
E---3---------------3---------------3---------------3-------------------


Chorus

e-----------------------------------------------------------------------
B-------1---------1-----1---------0-----0---------0-----0---------0-----
G-------0-----0---------0-----0---------0-----0---------0-----0---------
D-------2-------2-------2-------2-------2-------2-------2-------0-------
A---0-------0-------0-------0-------3-------3-------3-------3-----------
E-----------------------------------------------------------------------


e-----------------------------------------------------------------------
B---------0-------0-------0-------0-------0-------0-------0-------1-----
G-----0-------0-------0-------0-------0-------0-------0-------0---------
D-------0-------0-------0-------0-------0-------0-------0-------0-------
A-----------2---------------2---------------2---------------2-----------
E---3---------------3---------------3---------------3-------------------


e-----------------------------------------------------------------------
B-------1---------1-----1---------0-----0---------0-----0---------0-----
G-------0-----0---------0-----0---------0-----0---------0-----0---------
D-------2-------2-------2-------2-------2-------2-------2-------0-------
A---0-------0-------0-------0-------3-------3-------3-------3-----------
E-----------------------------------------------------------------------


e-----------------------------------------------------------------------
B---------0-------0-------0-------0-------0-------0-------0-------0-----
G-----0-------0-------0-------0-------0-------0-------0-------0---------
D-------0-------0-------0-------0-------0-------0-------0-------0-------
A-----------2---------------2---------------2---------------2-----------
E---3---------------3---------------3---------------3-------------------

 etc ...