20170409

DEL SHANNON RUNAWAY INSTRUMENTAL GUITAR TAB


Del Shannon - Runaway instrumental guitar cover played by MatevzB
Easy guitar instrumental with backing track
Download the TAB under the video



DEL SHANNON RUNAWAY INSTRUMENTAL TAB

GP5 + GP6 + PDF >>

e-----------------------------------------------------------------------
B---------------------------------5-3-----------------------------------
G-------2-------2/4---2---4-5---------------4---------------------------
D-----------------------------------------------------------------------
A-----------------------------------------------------------------------
E-----------------------------------------------------------------------


e-----------------------------------------------------------------------
B-----------------3-----------------------------------------------------
G---2-----2-4-------5~------2-------------------------------------------
D-----5-----------------------------------------------------------------
A-----------------------------------------------------------------------
E-----------------------------------------------------------------------


e-----------------------------------------------------------------------
B-----------------------------------------------------------------------
G-----------2-----2/5---4~----------------------------------------------
D---5-3---5-------------------------------------------------------------
A-----------------------------------------------------------------------
E-----------------------------------------------------------------------



e-----------------------------------------------------------------------
B---------------------------------5-3~----------------------------------
G-------2-------2/4---2---4-5---------------4---------------------------
D-----------------------------------------------------------------------
A-----------------------------------------------------------------------
E-----------------------------------------------------------------------


e-----------------------------------------------------------------------
B-----------------3-----------------------------------------------------
G---2-----2-4-------5~------2-------------------------------------------
D-----5-----------------------------------------------------------------
A-----------------------------------------------------------------------
E-----------------------------------------------------------------------


e-----------------------------------------------------------------------
B-----------------------------------------------------------------------
G-----------2-----2/5---4~----------------------------------------------
D---5-3---5-------------------------------------------------------------
A-----------------------------------------------------------------------
E-----------------------------------------------------------------------

 etc ...