20170520

TAKE ME HOME COUNTRY ROADS INSTRUMENTAL GUITAR TAB


John Denver - Take Me Home Country Roads instrumental guitar cover by Burns Ernst
Easy guitar instrumental with backing track
Download the TAB under the video



COUNTRY ROADS INSTRUMENTAL TAB

GP5 + GP6 + PDF >>

Verse

e-----------------------------------------------------------------------
B-----------------------------------------------------------------------
G-----------------------------------------------------------------------
D-----------------------------------------------------------------------
A-----------------------------------------------------0-----------------
E-----------0---0-0h2-------0---------------2---0-2---------------------


e-----------------------------------------------------------------------
B-----------------------------------------------------------------------
G-----------------------------------------------------------------------
D-----------------------------------------------------------------------
A-----------2---2-2h4-------2-------------------------------------------
E-----------------------------------2---2-2-----0---2--/5-5-------------


e-----------------------------------------------------------------------
B-----------------------------------------------------------------------
G-----------------------------------------------------------------------
D-----------------------------------------------------------------------
A---------------------------------------0-0-----4---4-------------------
E-----------0---0-0h2-------0-------2-----------------------------------



e-----------------------------------------------------------------------
B-----------------------------------------------------------------------
G-----------------------------------------------------------------------
D-----------------------------------------------------------------------
A---2---2-2-----2-2h4-------2-----------0-0---0h2---0-------------------
E-----------------------------------2-----------------------------------


Chorus

e-----------------------------------------------------------------------
B-----------------------------------------------------------------------
G-----------------------------------------------------------------------
D-----------------------------------------------------------------------
A---0---2-2h4-------------------4\2-0---2-------------------------------
E-----------------------------------------------------------------------


e-----------------------------------------------------------------------
B-----------------------------------------------------------------------
G-----------------------------------------------------------------------
D-----------------------------------------2-2h4-------------------------
A---4---2h4p2-0-----------------------4---------------------------------
E-----------------------------------------------------------------------


e-----------------------------------------------------------------------
B-----------------------------------------------------------------------
G-----------------------------------------------------------------------
D---4---4-2-------------------------------------------------------------
A-------------4----------------------4\2-0---2----2h4-------------------
E-----------------------------------------------------------------------


e-----------------------------------------------------------------------
B-----------------------------------------------------------------------
G-----------------------------------------------------------------------
D-----------------------------------------------------------------------
A---4\2-0---0-----------------------0-0h2---0---------------------------
E-----------------------------------------------------------------------






DOWNLOAD THIS TAB IN GUITAR PRO



  • click 'Free Download'
  • add your e-mail address
  • you will get an e-mail with your download links (in a few seconds)
  • download the Guitar Pro 6 tab + GP5 + PDF for free
  • and that's all ...


Guitar Pro: a complete workshop for guitarists at an affordable price