20170508

GARY MOORE THE STUMBLE TAB (BLUES SOLO TAB)


Gary Moore - The Stumble is one of the best blues rock songs in history
Instrumental electric guitar solo played in standard tuning
Download the TAB under the video



GARY MOORE THE STUMBLE TAB

GP5 + GP6 + PDF >>

Part 1

e------------------------------12-\--------7-------7--------------------
B------------------------------12-\----8.--10(12)--10(12)--10-8-10-8'---
G--------9-11-9~-------11'-----12-\-/9----------------------------------
D---9h11----------------------------------------------------------------
A-----------------------------------------------------------------------
E-----------------------------------------------------------------------


e-------------------------------7.--------------------------------12-\--
B-------------------------------7.--------------------------------12-\--
G----9----7--7------------------7.---------9-11-9~-------12-\-----12-\--
D-------9------\7--5h6---\------6.----9h11------------------------------
A-----------------------------------------------------------------------
E-----------------------------------------------------------------------


e-----------------------------------------------------------------------
B-----------------------------------------------------------------------
G-----7.--9(11)---9(11)(9)-7---7'---------------------------------------
D---9------------------------9------9--7--------------------------------
A----------------------------------------\7p5---7----5h6----------------
E---------------------------------------------7----7-----7-7~-----------



e----12-----------------------------------------------------------------
B----14(15).--14-12----12-----------------------------------------------
G--------------------14--12'---------------12---------------------------
D-----------------------------14--12-14~-----14-------------------------
A----------------------------------------------14-12h14-10'---\---------
E-----------------------------------------------------------------------


e-----------------------------------------------------------------------
B-----------------------------------------------------------------------
G-----------------------------7-----6-----5-----------------------------
D--------------------------/9---9-8---8-7---7-5'------------------------
A-------7-7~----7~---10--\----------------------------------------------
E---/9--------9---------------------------------------------------------


e-----9\7.--2/3\2--0-9--2/3\2-p0-2--0-2/3\2p0---------------------------
B-----------------------------------------------------------------------
G-----9\7.--2/3\2-------2/3\2-p0-2--0-2/3\2p0---------------------------
D---------------------------------------------2~--2~--------------------
A-----------------------------------------------------------------------
E-----------------------------------------------------------------------


e-----3'-0--------------------------------------------------------------
B---0------0------------------------------------------------------------
G------------3\2p0-2----0h1---------------------------------------------
D-----------------2---2------2------------------------------------------
A------------------------------2~--2.-----------------------------------
E-----------------------------------------------------------------------






DOWNLOAD THIS TAB IN GUITAR PRO



  • click 'Free Download'
  • add your e-mail address
  • you will get an e-mail with your download links (in a few seconds)
  • download the Guitar Pro 6 tab + GP5 + PDF for free
  • and that's all ...


Guitar Pro: a complete workshop for guitarists at an affordable price