20170527

NIR SHOR ANGELS & DEMONS TAB (ELECTRIC GUITAR TAB)


Hans Zimmer - Angels & Demons electric guitar cover played by Nir Shor
The YouTube video title says: 'EPIC GUITAR ROCK COVER'
Download the TAB under the video



ANGELS & DEMONS ELECTRIC GUITAR TAB

GP5 + GP6 + PDF >>

e------------------------------7----------------------------7-----------
B-----------------6---9---10-------------------6---9---10---------------
G---9---7---9---9----------------9---7---9---9--------------------------
D-----------------------------------------------------------------------
A-----------------------------------------------------------------------
E-----------------------------------------------------------------------
    x   x   x   x x   x   x    x x   x   x   x x   x   x    x


e------------------------------7----------------------------7-----------
B-----------------6---9---10-------------------6---9---10---------------
G---9---7---9---9----------------9---7---9---9--------------------------
D-----------------------------------------------------------------------
A-----------------------------------------------------------------------
E-----------------------------------------------------------------------
    x   x   x   x x   x   x    x x   x   x   x x   x   x    x


e-----------------------------------------------------------------------
B---12---13--------13-12--------10---12---------------------------------
G-------------9~-----------9~-------------------------------------------
D-----------------------------------------------------------------------
A-----------------------------------------------------------------------
E-----------------------------------------------------------------------



e--------10-------------------------------------------------------------
B---13--------12---13-12h13p12------10---10-----------------------------
G------------------------------9~---------------------------------------
D-----------------------------------------------------------------------
A-----------------------------------------------------------------------
E-----------------------------------------------------------------------


e-----------------------------------------------------------------------
B---12---13--------13-12--------10---12---------------------------------
G-------------9~-----------9~-------------------------------------------
D-----------------------------------------------------------------------
A-----------------------------------------------------------------------
E-----------------------------------------------------------------------


e--------10---12--------------------------------------------------------
B---13-------------10-12~-------10~---\---------------------------------
G---------------------------9-------------------------------------------
D-----------------------------------------------------------------------
A-----------------------------------------------------------------------
E-----------------------------------------------------------------------


e-----------------------------------------------------------------------
B-----------------------------------10-9-8-7----------------------------
G----------7-9-------------7-9---------------10-9-8-10-9-8-7------------
D---7-9-10-----9----7-9-10-----9-----------------------------10-9-8-----
A----------------10--------------10-------------------------------------
E-----------------------------------------------------------------------
    x x x  x x x x  x x x  x x x x  x  x x x x  x x x  x x x x  x x


e-----------------------------------------------------------------------
B-----------------------------------------------------------------------
G-----------------------------------------------------------------------
D---7.--7.--7-----7.--7.--7-----7.--7.--7-----7.--7.--7-----------------
A-----------------------------------------------------------------------
E---5.--5.--5-----5.--5.--5-----5.--5.--5-----5.--5.--5-----------------


e------------10------------------10-12----------------------------------
B---10-12-13------------10-12-13-------12-------------------------------
G---------------9-10-12-------------------12----------------------------
D-----------------------------------------------------------------------
A-----------------------------------------------------------------------
E-----------------------------------------------------------------------
    x  x  x  x  x x  x  x  x  x  x  x  x  x


e------------10------------------10-12----------------------------------
B---10-12-13------------10-12-13-------12-------------------------------
G---------------9-10-12-------------------12----------------------------
D-----------------------------------------------------------------------
A-----------------------------------------------------------------------
E-----------------------------------------------------------------------
    x  x  x  x  x x  x  x  x  x  x  x  x  x






DOWNLOAD THIS TAB IN GUITAR PRO



  • click 'Free Download'
  • add your e-mail address
  • you will get an e-mail with your download links (in a few seconds)
  • download the Guitar Pro 6 tab + GP5 + PDF for free
  • and that's all ...


Guitar Pro: a complete workshop for guitarists at an affordable price