20170618

BOBBY DARIN DREAM LOVER INSTRUMENTAL GUITAR TAB


Bobby Darin - Dream Lover instrumental guitar cover played by Dave Monk
Easy guitar instrumental with backing track
Download the TAB under the video



DREAM LOVER INSTRUMENTAL TAB

GP5 + GP6 + PDF >>

Part 1

e-----------------------------------------------------------------------
B-------------------------5---------------------------------------------
G-------5---5-5-----5---7-----7-5~----------------------5~--------------
D-----5-----------5--------------------7-7-5-7~---7-5-7------7~---------
A-----------------------------------------------------------------------
E-----------------------------------------------------------------------


e-----------------------------------------------------------------------
B-------------------------5---------------------------------------------
G------5---5~-------5---7-----7-5~----------------------5~--------------
D----5---5--------5--------------------7-7-5-7~---7-5-7------7~---5-7-5-
A-----------------------------------------------------------------------
E-----------------------------------------------------------------------


e-----------------------------------------------------------------------
B-------------------------------------5------------5/6-6-5--------------
G---5-(4)-(5)~-------5/7-7~---------7---7-5~---------------5~-----------
D-----------------------------------------------------------------------
A---- tremolo ----------------------------------------------------------
E-----------------------------------------------------------------------



e-----------------------------------------------------------------------
B--------------5--------------------------------------------------------
G---5-7-5~-------7-5-7-------5-5---5-7~---5~~~--------------------------
D------------------------7-7-----7--------------------------------------
A-----------------------------------------------------------------------
E-----------------------------------------------------------------------




DOWNLOAD THIS TAB IN GUITAR PRO



  • click 'Free Download'
  • add your e-mail address
  • you will get an e-mail with your download links (in a few seconds)
  • download the Guitar Pro 6 tab + GP5 + PDF for free
  • and that's all ...


Guitar Pro: a complete workshop for guitarists at an affordable price