20170612

DR. VIOSSY LONG TRAIN RUNNING TAB (FINGERSTYLE GUITAR SOLO TAB)

Dr. Viossy & Diana play Long Train Running by The Doobie Brothers
Nice fingerstyle solo part around 1:44 - 2:27 arranged in 1 step-down tuning
Download this solo TAB under the video



TRAIN RUNNING FINGERSTYLE SOLO TAB

GP5 + GP6 + PDF >>

Solo  (1:44 - 2:27)

d-----------------------------------------------------------------------
A---------------6.--5-----3.------------10h11--10.----10----8.----------
F---------3.--------------3.------------10-----10.----10----8.----------
C---3h5---3.----5.--5-----------3h5-----10h12---------------------------
G---3h5-x-----x---------------x-3h5-x--------10-------8-----8.----------
D-----------------------------------------------------------------------


d-----------------------------------------------------------------------
A-----8h10--------------------------------------------------------------
F-----8h10p0---3p0-5p0-6/7.----10.----12.--15p0---3p0-5p0-6/7.----------
C--------------3p0-5p0-6/7.----10.----12.--15p0---3p0-5p0-6/7.----------
G----------------------------x------x-----------------------------------
D---8-------------------------------------------------------------------


d------------------6p5p3------------------------------------------------
A------6.--5.--3.-------6p5p3-5p3---------------------------------------
F------5.--5.--3.------------6---6p5p3-5p3------------------------------
C---5h7----5.--3.---------------------5---5-5p3-----3-------------------
G----------------------------------------------5-3h5-5p3-------4/5-8----
D-------------------------------------------------------6-3h6h8---------



d----------------------9h10h13-10.--------------------------------------
A---------------8h11h13--------------10.--10h11---10.---10.-------------
F---------6h7h10---------------------10.--10------10.---10.-------------
C---5-8h10--------------------------x-----10h12--------x----------------
G-----------------------------------------------------------------------
D-----------------------------------------------------------------------


d-----------------------------------------------------------------------
A---10-----8.----8.--8-----8.----8.--7-\---4.----3.---------------------
F---10-----8.----8.--8-----7.----5.--5-\---3.----3.---------------------
C---10-----8.--x-----8---------------7-\-------5------------------------
G------------------------6-----5---------3------------------------------
D-----------------------------------------------------------------------


d-----------------------------------------------6.--6-----3.------------
A-----------------------------------------------5.--5-----3.----3h5-----
F---------3.----------3.----2-------------3.--------------------3h5-----
C---3h5---3.----3h5---3.----3---3---3h5---3.----------------------------
G---3h5-------x-3h5-x-----x---------3h5-x-----x-----3---------3---------
D-----------------------------------------------------------------------


d-----------------------------------------------------------6.--3.------
A---------------------6.----5.--5.--------------------6.----3.--3.------
F---3-----------------3.----3.--3.--3-----------------3.----------------
C---3-----5.----3h5-----------------3-----5.----3h5---------------------
G---------5.----3h5-x-----5-----5.--------5.----3h5-x-----5-----5.------
D-------------x-------------------------------x-------------------------

                                                          T   T   T
d----------------------------------------11.----8.----------------------
A-------3h4---3.----6-----4.----8h10-----8.-----8.----8---15p8----------
F-------3-----3.----3-----3.----8---------------------8-------15p8------
C-----------------------------------------------------------------15p8--
G---3-------3-----3-----3-----------------------------------------------
D------------------------------------8--------8-----8-------------------

  T
d-----------------------------------------------------------------------
A--------------10.--11----10.---10.--------6.----10.--10h11---10.----10.
F-12----10.----10.--10----10.---10.--7-----7.----10.--10------10.----10.
C-12----10.---------12----10.--x-----5----------------------------------
G------------10--------------------------------10-----10------10.--10---
D-----------------------------------------------------------------------


d-------------------6h8p6-----------------------5.----------------------
A-----------6h8p6---------6-----------------7/8-----8.----7.----7.------
F---------7-------7-----------7-----------5---------7.----5.----5.------
C-------8-----------8-----------8.------7-----------------7.----7.------
G---6-------------------------------5---------------5.--x-----x---------
D-----------------------------------------------------------------------


d--10------10-10---x-x-x-x-10----10-10-x-x------------------------------
A--10h11---11-11---x-x-x-x-10h11-11-10-x-x------------------------------
F--10------10-10---x-x-x-x-10----10-10-x-x------------------------------
C--10h12---12-12---x-x-x-x-10h12-12-10-x-x------------------------------
G--10------10-10---x-x-x-x-10----10-10-x-x------------------------------
D-----------------------------------------------------------------------


d--10------10-10---x-x-x-x-10----x-10--\--------------------------------
A--10h11---11-11---x-x-x-x-10h11-x-10--\--------------------------------
F--10------10-10---x-x-x-x-10----x-10--\--------------------------------
C--10h12---12-12---x-x-x-x-10h12-x-10--\--------------------------------
G--10------10-10---x-x-x-x-10----x-10--\--------------------------------
D-----------------------------------------------------------------------




DOWNLOAD THIS SOLO TAB IN GUITAR PRO



  • click 'Free Download'
  • add your e-mail address
  • you will get an e-mail with your download links (in a few seconds)
  • download the Guitar Pro 6 tab + GP5 + PDF for free
  • and that's all ...


Guitar Pro: a complete workshop for guitarists at an affordable price