20170605

ROD STEWART SEEMS LIKE A LONG TIME SOLO TAB (GUITAR SOLO TAB)


Rod Stewart - Seems Like A Long Time electric guitar solo is about 1:40 - 2:08
Download the TAB under the video



ROD STEWART SEEMS LIKE A LONG TIME SOLO TAB

GP5 + GP6 + PDF >>

(1:40 - 2:08)

e-----------------------------------------------------------------------
B-----------------------------------------------------------------------
G-----7(9)------(9)(7)p5~------5-----------7(9)---(9)(7)p5~-------------
D---5--------------------------5h7p5.----5------------------------------
A-----------------------------------------------------------------------
E-----------------------------------------------------------------------


e-----------------------------------------------------------------------
B---8-------------------------------------------------------------------
G-----7(9)-------(9)(7)p5~---------5------------------------------------
D----------------------------------5h7--p5.-----------------------------
A-----------------------------------------------------------------------
E-----------------------------------------------------------------------


e-----------------------------------------------------------------------
B-------12-12-12-12-12-12------------12-----------10--------------------
G---/12-------------------12-----------------8/10-------10----10.-------
D---/12----12-12-12-12-------12~--12----12.--8/10----10----10-----------
A-----------------------------------------------------------------------
E-----------------------------------------------------------------------



e---------------------11(12)--------------------------------------------
B--------13----13~-------------13~-----13-\-----5-----------------------
G-----12----12------12--------------------------5---5---5---5.----------
D-------------------------------------------3/5---5---5---5-------------
A-----------------------------------------------------------------------
E-----------------------------------------------------------------------


e---3/5-5-----3/5\3-5\3/5---5/8-8\5-5\3.--------------------------------
B---3/5-5-----3/5\3-5\3/5---5/8-8\5-5\3.--------------------------------
G-----------------------------------------------------------------------
D-----------------------------------------------------------------------
A-----------------------------------------------------------------------
E-----------------------------------------------------------------------


e---8----8----8--------------------------------------8.-----------------
B---8h10-10p8-10p8-----------------------------------8.-----------------
G------------------10(12)---(12)(10)p8.---------------------------------
D---------------------------------------10-10~--------------------------
A-----------------------------------------------------------------------
E-----------------------------------------------------------------------




DOWNLOAD THIS TAB IN GUITAR PRO



  • click 'Free Download'
  • add your e-mail address
  • you will get an e-mail with your download links (in a few seconds)
  • download the Guitar Pro 6 tab + GP5 + PDF for free
  • and that's all ...


Guitar Pro: a complete workshop for guitarists at an affordable price