SILENT NIGHT UKULELE TAB (FINGERSTYLE)


Silent Night fingerstyle ukulele cover played by Kalei Gamiao
"Part 2" starts about 1:07 in this video
Download the TAB below



SILENT NIGHT FINGERSTYLE UKULELE TAB

PDF + GUITAR PRO >>

Part 2

A-------------------<12>------------------------------------------------
E---3<15>------------------3<15>-------<12>-----------0-----------------
C---------------0---------------------------------0---------------------
G-----------0----------------------0----------0-----------0---0---------


A-------------------<12>--------------------------------------5---------
E---3<15>------------------3<15>-------<12>-----------0-----------------
C---------------0---------------------------------0---------------------
G-----------0----------------------0----------0-----------0-------------


A---5---------------5-------2---------------0---2/3---------------------
E---------------3-----------1-----------1-------------------------------
C-----------5---------------2-------2-----------------------------------
G-------0---------------0---0---0---------------------------------------


A---3---------------3---------------------------------------------------
E-----------0---------------3-----------3-------------------------------
C-----------------------------------0-----------------------------------
G-------0-------0-------0-------0-----------0---0-----------------------



A---<12>---------------<12>-------3<15>-----------2<14>---<12>----------
E------------------1----------------------------------------------------
C--------------0------------------------------0-------------------------
G----h2----2------------------2-----------2----------------------2------


A-------------------<12>------------------------------------------------
E---3<15>------------------3<15>-------<12>-----------0-----------------
C---------------0---------------------------------0-----------0---------
G-----------0----------------------0----------0-----------0-------------


A---<12>---------------<12>-------3<15>-----------2<14>---<12>----------
E------------------1----------------------------------------------------
C--------------0------------------------------0-------------------------
G----h2----2------------------2-----------2----------------------2------


A-------------------<12>------------------------------------------------
E---3<15>------------------3<15>-------<12>-----------0-----------------
C---------------0---------------------------------0-----------0---------
G-----------0----------------------0----------0-----------0-------------

 etc ...