20170812

ADUNBEE IN DREAMS TAB (ELECTRIC GUITAR INSTRUMENTAL TAB)


Lord of the Rings - In Dreams electric guitar cover played by Adunbee
Nice electric guitar instrumental arranged in Dropped-D tuning
Download the TAB under the video



IN DREAMS ELECTRIC GUITAR TAB

GP5 + GP6 + PDF >>

(Dropped D tuning)

e-----------------------------------------------------------------------
B-----------------------------------------------------------------------
G-----------5-----------------------------------------------------------
D---3-5-7-------7------5h7p5p3------------------------------------------
A---3----------------------------3--------------------------------------
D---3--------------------------------3----------------------------------


e-----------------------------------------------------------------------
B-----------------------------------------------------------------------
G-----5-7-----10-9------------------------------------------------------
D---7---0-----8------10---7-----7h8p7p0-5~------------------------------
A---0---x-----8-----------8-------------3~------------------------------
D---0---8-----8---------------------------------------------------------


e-----------------------------------------------------------------------
B-----------------------------------------------------------------------
G-----------5-----------------------------------------------------------
D---3-5-7-------7------5h7p5p3------------------------------------------
A---3----------------------------3--------------------------------------
D---3--------------------------------3----------------------------------



e-----------------------------------------------------------------------
B-----------------------------------------------------------------------
G-----5-7-----7---------------------------------------------------------
D---7---0------7/8--\7---5~---------------------------------------------
A---0---x----------------3~---------------------------------------------
D---0---8---------------------------------------------------------------


e-----------------------------------------------------------------------
B-----------------------------------------------------------------------
G----------------------------------------------5------------------------
D---3-5-7~----------8-\-5~----------3-5-7~-------7-----5h7p5-3----------
A-------0---------------3~--------------0--------------------3----------
D-------0-------------------------------0--------------------3----------