20170821

AUTUMN LEAVES FINGERSTYLE GUITAR TAB


Autumn Leaves fingerstyle classical guitar cover played by Nathalie Jost
It's arranged in standard tuning and no Capo is used
Download the TAB under the video



AUTUMN LEAVES FINGERSTYLE TAB

GP6 + GP5 + PDF >>

Part 1

e-----------1----------------------------------0------------------------
B------0-1------------3---1--0--------------0---------------------------
G---2-------------2----------------0------2-----------------------------
D-------------0---------------------------------------------------------
A-----------------------------------------------------------------------
E------------------------------3-------3--------------------------------


e--------------0---------0----------------------------------------------
B-------1---0----0-------1-----------3----------------------------------
G--------------------2----------0-2-------------------------------------
D----------------------------3------------------------------------------
A---3-------2--------0--------------------------------------------------
E-----------------------------------------------------------------------


e-----------------------------------------------------------------------
B--------------3--------------------------------------------------------
G-------2--------2--1---------------------------------------------------
D-------------------------2---------------------------------------------
A-----------------------------------------------------------------------
E---1-------1---------0-------0--2-4------------------------------------


e--------------------------------------1--------------------------------
B---1---1---0---0-----------------0-1-----------------------------------
G------------------2---------1/2----------------------------------------
D-------2-------2-------------------------------------------------------
A---0----------------0--------------------------------------------------
E-----------0-----------------------------------------------------------