20170923

FAMOUS FLOWERS OF MANHATTAN TAB (ACOUSTIC GUITAR TAB)


The Avett Brothers - Famous Flowers of Manhattan acoustic cover played by Matt
It's in standard tuning with Capo on the 1st fret (lyrics included too)
Download the TAB under the video



FAMOUS FLOWERS OF MANHATTAN ACOUSTIC TAB

DOWNLOAD PDF >>

Intro

e-----------------------------------------------------------------------
B---3-------0--------------0--------------------------------------------
G---------------------0-2----2--0-0-------0-----------------------------
D--------0---------0---------0---------0--------------------------------
A-----------------------------------------------------------------------
E---3---------3---------3---------3-------------------------------------


e-----------------------------------------------------------------------
B------0---------0---------0-----------0--------------------------------
G---2----2--0-2----2--0-2----2--0-2-------0-----------------------------
D--------0---------0---------0---------0--------------------------------
A-----------------------------------------------------------------------
E---3---------3---------3---------3-------------------------------------


e-----------------------------------------------------------------------
B-----------1---------1---------1----0----------------------------------
G------0---------0---------0--------------0-----------------------------
D--------2---------2---------2---------2--------------------------------
A---3---------3---------3---------3-------------------------------------
E-----------------------------------------------------------------------



e-----------------------------------------------------------------------
B-----------3---------0---------0---------0-----------------------------
G------0---------0---------0---------0----------------------------------
D--------0---------0---------0---------0--------------------------------
A-----------------------------------------------------------------------
E---3---------3---------3---------3-------------------------------------


Verse

e-----------------------------------------------------------------------
B-----------0---------0---------0---------0-----------------------------
G------0---------0---------0---------0----------------------------------
D--------0---------0---------0---------0--------------------------------
A-----------------------------------------------------------------------
E---3---------3---------3---------3-------------------------------------


e-----------------------------------------------------------------------
B-----------0---------0---------0---------0-----------------------------
G------0---------0---------0---------0----------------------------------
D--------0---------0---------0---------0--------------------------------
A-----------------------------------------------------------------------
E---3---------3---------3---------3-------------------------------------


e-----------------------------------------------------------------------
B-----------1---------1---------1---------1-----------------------------
G------0---------0---------0---------0----------------------------------
D--------2---------2---------2---------2--------------------------------
A---3-------------------3-----------------------------------------------
E-------------3-------------------3-------------------------------------


e-----------------------------------------------------------------------
B-----------3---------0---------0---------0-----------------------------
G------0---------0---------0---------0----------------------------------
D--------0---------0---------0---------0--------------------------------
A-----------------------------------------------------------------------
E---3---------3---------3---------3-------------------------------------

 etc ...