20170901

JOHNNY RIVERS ROCKIN PNEUMONIA SOLO TAB (GUITAR SOLO TAB)


Johnny Rivers - Rockin Pneumonia electric guitar solo cover by Michael Gregory
Originally the solo is played by Dean Parks from Johnny Rivers' band
Download the TAB under the video



ROCKIN PNEUMONIA SOLO TAB

GP5 + GP6 + PDF >>

e----------8------------------------------------------------------------
B-------------11(13)~~~-------------------------------------------------
G------/9---------------------------------------------------------------
D-----------------------------------------------------------------------
A-----------------------------------------------------------------------
E-----------------------------------------------------------------------


e-----------------------------------------------------------------------
B---8(10).--8.--8.--(10).--8.--8~---------------------------------------
G---------------------------------------7(9).--(9)(7)-p5----------------
D---------------------------------------------------------5~------------
A-----------------------------------------------------------------------
E-----------------------------------------------------------------------


e-----------------------------------------------------------------------
B-----------------------------------------------------------------------
G--------5.--5--------7(9)-----(7)--7.----------------------------------
D---5/7---------5--5----------------------------------------------------
A-----------------------------------------------------------------------
E-----------------------------------------------------------------------



e-----------------------------------------------------------------------
B-----------------------------------------------------------------------
G---7(9)----7(9)'------(9).--(9)--(7)--5--7--5-----5~--/----------------
D-----------------------------------------------7-----------------------
A-----------------------------------------------------------------------
E-----------------------------------------------------------------------


e-------------15--15----------------------------------------------------
B---15(17)------------(17)(15)--13.--15(17)--------------------15.--13.-
G--------------------------------------------12.--12-h14--14.-----------
D-----------------------------------------------------------------------
A-----------------------------------------------------------------------
E-----------------------------------------------------------------------


e-----------------------------------------------------------------------
B---15(17)~~~-----------------------------------------------------------
G-----------------------------------------------------------------------
D-----------------------------------------------------------------------
A-----------------------------------------------------------------------
E-----------------------------------------------------------------------

 etc ...