20171014

DO I EVER CROSS YOUR MIND TAB (FINGERPICKING GUITAR TAB)


Dolly Parton - Do I Ever Cross Your Mind acoustic guitar cover by Lindsay Straw
Standard tuning, Capo on the 1st fret (actually on the 2nd but with half step down tuning)
Download the TAB under the video



DO I EVER CROSS YOUR MIND FINGERPICKING TAB

PDF >>

Intro                        - Capo on the 1st -

e-----------------------------------------------------------------------
B---1---1---1-----1---1---1-----1---1---1-------------------------------
G---------------0---------------0---------------------------------------
D-------0---0h2-----2---0---------------0-------------------------------
A---3-----------------------3-------3-----------------------------------
E-----------------------------------------------------------------------


e-----------------------------------------------------------------------
B---1-----1---1---1-----1---------1-------------------------------------
G-------0---------------0-------0---------------------------------------
D---0h2-----2---0-----------0h2-----------------------------------------
A-------------------3---------------------------------------------------
E-----------------------------------------------------------------------


e-----------------------------------------------------------------------
B-------1---------------0---------0-----1-----1---1-----1---------------
G---0-------------------0-----------------------------------0---0-------
D-----------2---0---------------0-------0h2-0---0-----------------------
A---------------------------0h2-----3---------------3---0-------0-------
E-------------------3---------------------------------------3-----------



e-----------------------------------------------------------------------
B-------1-----1---1-----1---------------1-----1---1-----1---------------
G---------------------------0---0---------------------------0---0-------
D-------0h2-0---0-----------------------0h2-0---0-----------------------
A---3---------------3---0-------0---3---------------3---0-------0-------
E---------------------------3-------------------------------3-----------


e-----------------------------------------------------------------------
B-------1---------1-----1---------1-----1---------1-----1---------------
G-------0-------0-------0-------0-------0-------0-------0---0---0-------
D-----------0h2-------------0h2-------------0h2-------------------------
A---3---------------3---------------3---------------3-----------0-------
E-----------------------------------------------------------3-----------

 etc ...