20171031

BARNATRO INSTRUMENTAL GUITAR TAB


Barnatro (Childhood Faith) instrumental guitar cover played by Svein Bakken
Easy guitar instrumental with backing track
Download the TAB under the video



SVEIN BAKKEN BARNATRO TAB

GP5 + GP6 + PDF >>

Part 1

e-----------4------3-4---7----------------------------------------------
B-------5-------------------------------5-4--3-------7-5----------------
G---4------------------------4-----------------6-----------6---4--------
D-----------------------------------------------------------------------
A-----------------------------------------------------------------------
E-----------------------------------------------------------------------


e--------------------4--------------------------------------------------
B----------------5-------7--------4---5--5/7----------------------------
G--------4-----4------------6-------------------------------------------
D---6--7----------------------------------------------------------------
A-----------------------------------------------------------------------
E-----------------------------------------------------------------------


e---------------------------7-------------------------------------------
B---------5---5/9-----8-9--------------5-4--3-------7-5-----------------
G---4-4-------------------------4-------------6-----------6---4---------
D-----------------------------------------------------------------------
A-----------------------------------------------------------------------
E-----------------------------------------------------------------------



e--------------------4--------------------4-----------------------------
B----------------5-------7--------4-------5-----------------------------
G--------4-----4------------6---------4---------------------------------
D---6--7----------------------------------------------------------------
A-----------------------------------------------------------------------
E-----------------------------------------------------------------------

 etc ...